» » »

21st Century Breakdown Bass tabs (ver.3)

Artists:  A B C D E F G H I J K L M N O P Q R S T U V W X Y Z # 

21st Century Breakdown Bass tabs (ver.3)

Green Day
Rating:
0/5 (0 votes)
Tabs too difficult? Try these video lessons and learn fast.
                -------------------------------------------------------------------------------
			    21st Century Breakdown (bass) - GREEN DAY
-------------------------------------------------------------------------------

FIRST TAB FOOLS
Tuning:STANDARD
Updated 8/10/09-took out all the wrong hammer ons and pull offs

INTRO X8 play along with the piano part if you want to 
G|---------------------------------------------------------------------------|
D|---------------------------------------------------------------------------|
A|--4------------------------------------------------------------------------|
E|-----4~~~~~----------------------------------------------------------------|

VERSES 1 + 2 AND CHORUSES (6 times for verses,4 times for choruses)
G|---------------------------------sometimes--------------------------------|
D|----------------------------------there-------4-4-4-4-2-0-----------------|
A|-4-4-4-4-4-4---------------are fills--------------------4-2---------------|
E|-------------4-4-2-2-2-2---like this--------------------------------------|

Pre-choruses
G|---------------------------------------------------------------------------|
D|---------------/4-4-4-4-4-4------------------------------------------------|
A|-1-1-1-1-1-1-1-----------------1-1-1-1-1-1-1-------------------------------|
E|---------------------------------------------2-2-2-2--4--4-----------------|

INTERLUDE
G|---------------------------------------------------------------------------|
D|---------------------------------------------------------------------------|
A|--------------------------------------------------------------------4------|
E|----4~-------------------------4~---------------------4~---------4~--------|

G|----------x---------------------------------------------------------------|
D|----------x---------------------------------------------------------------|
A|-----4----x----4-4-4-4-4-4-4----------------------------------------------|
E|--4-------x---------------------------------------------------------------|

VERSES 3+4
G|---------------------------------------------------------------------------|
D|------------------------------------------------etc------------------------|
A|--4-4-4-4-4-4--------4-4-4-4-4-4-------------------------------------------|
E|---------------2--4---------------2-2-2-2-2-2------------------------------|

SHORT INTERLUDE AGAIN
G|---------------------------------------------------------------------------|
D|---------4-------etc-------------------------------------------------------|
A|-4-4-4-4-------------------------------------------------------------------|
E|---------------------------------------------------------------------------|

OUTRO
G|---------------------------------------------------------------------------|
D|---------------------------------------------------------------------------|
A|---4---3----1--------------------------------------------------------------|
E|---------------4----2----4-------------------------------------------------|
x2 (probably still wrong)
END

| /  slide up
| \  slide down
| h  hammer-on
| p  pull-off
| ~  vibrato
| +  harmonic
| x  Mute note
===============================================================================
            
Tabs too difficult? Try these video lessons and learn fast.


comments powered by Disqus
↑ Back to top | Tablatures and chords are parodies/interpretations of the original songs. You may use it for private study, scholarship, research or language learning purposes only