» » »

21st Century Breakdown Bass tabs (ver.1)

Artists:  A B C D E F G H I J K L M N O P Q R S T U V W X Y Z # 

21st Century Breakdown Bass tabs (ver.1)

Green Day
Rating:
0/5 (0 votes)

Hard to play? Try these video lessons and learn fast.
                -------------------------------------------------------------------------------
				GREEN DAY - 21st Century Breakdown
-------------------------------------------------------------------------------

Not 100%...........


"Uuuuuuuuuuuuuuu" / "Born into Nixon..."
G|-------------------------------------|
D|----------------------6-4-3h4h3------|
A|4-4-44-0------0-4-4-44---------6-4---|
E|--------4-2-24-----------------------|

"My generation is zero..."
G|-------------------------------|
D|-------------------------------|
A|1-1-11-1/9-9-99-1-1-11-1/9-9---|
E|-------------------------------|

"21st Century Breakdown..."
G|--------------------------------------------------------|
D|----------------66-444-43------------------66-444-43----|
A|44-----------044---------6-44-----------044---------6---|
E|--44-222-22-4----------------44-222-22-4----------------|

"We are...."
G|-----------------------------|
D|-----------------------------|
A|---4----4----4---4(repeat)---|
E|4---4----4----4--------------|

G|-----------------|
D|-------------4---|
A|44-044-044-04----|
E|-----------------|

"My name is..."
G|---------------------------------|
D|-------------------66666666666---|
A|44-044--044-044-044--------------|
E|------24-------------------------|

"...the freedom to obey..."
G|------------------------------|
D|------------------444-6-------|
A|-----4444-----4444-----4444---|
E|222-4----222-4----------------|

"Dont cross the line"
G|----------------------------------|
D|----------------------------------|
A|--------4-----4-----4-------------|
E|22-4--22-4--22-4--22-4--4--4--4---|

"Oh dream..."
G|--------------------------------------------------------------------|
D|--------------------------------------------------------------------|
A|4--4-3--3-1--1/11--11-9--9-0--0-4--4-4--4--4-3--3-------------------|
E|-------------------------------------------------6--6-4--4-2--2/5---|



| /  slide up
| \  slide down
| x  Mute note
===============================================================================
            
Hard to play? Try these video lessons and learn fast. | Correct




comments powered by Disqus
↑ Back to top | Tablatures and chords are parodies/interpretations of the original songs. You may use it for private study, scholarship, research or language learning purposes only