» » »

Green Day, 2000 Light Years Away Tabs (ver.1)

Artists:  A B C D E F G H I J K L M N O P Q R S T U V W X Y Z # 

2000 Light Years Away Tabs (ver.1)

Green Day Tabs
Rating:
4/5 (7 votes)
2000 Light Years Away lessons Tabs too difficult? Try these video lessons and learn fast
                Green Day - 2000 Light Years Away


An utter classic by Green Day in the early years (which is much better than 
their american idiot cr*p), easy to play too.


Tuning: although it can be played in standard, it's best to
	tune down 1/2 step

() - represents less dominant notes
pm - palm mute
x - scratched/not played

chord reference:
Bb- x244xx
G-  466xxx
F-  244xxx
Eb- 022xxx
* the rhythm is just Bb to G to F


intro/end of chorus
eb|------------------------------------------------------------------------|
Bb|------------------------------------------------------------------------|
Gb|--4--4-4-4-4------------------------------------------------------------|
Db|--4--4-4-4-4--6--4---(4-4-4)--------------------------------------------|
Ab|--2--2-2-2-2--6--4---(4-4-4)--------------------------------------------|
Eb|--------------4--2---(2-2-2)--------------------------------------------|

verse 1
I sit alone in my bedroom...
eb|------------------------------------------------------------------------|
Bb|------------------------------------------------------------------------|
Gb|--4-----------------------4---------------------------------------------|
Db|--4-----------4-----------4-----------4---------------------------------|
Ab|--2-----------4-----------2-----------4---------------------------------|
Eb|--------------2-----------------------2---------------------------------|


chorus
I hold my breath and close my eyes...
eb|------------------------------------------------------------------------|
Bb|------------------------------------------------------------------------|
Gb|-------------4------------------------------------------4-4-------------|
Db|--6----------4--------6-6-----4-------2--(2)---4--------4-4-------------|
Ab|--6----------2--------6-6-----4-------2(2)-----4------1h2-2-------------|
Eb|--4-------------------4-4-----2-------0--------2------------------------|
							*(4x here)
2nd time
eb|------------------------------------------------------------------------|
Bb|------------------------------------------------------------------------|
Gb|-------------4----------------------------------------------------------|
Db|--6----------4--------6-6-----4-------2--(2)---4------------------------|
Ab|--6----------2--------6-6-----4-------2(2)-----4------------------------|
Eb|--4-------------------4-4-----2-------0--------2------------------------|


verse 2 (same as 1 but with pm)
eb|------------------------------------------------------------------------|
Bb|------------------------------------------------------------------------|
Gb|--4-4-4--4-4-4----------------------------------------------------------|
Db|--4-4-4--4-4-4-4--4-4--4-4-4--------------------------------------------|
Ab|--2-2-2--2-2-2-4--4-4--4-4-4--------------------------------------------|
Eb|---------------2--2-2--2-2-2--------------------------------------------|
    **p.m.


bass solo/rhythm
eb|------------------------------------------------------------------------|
Bb|------------------------------------------------------------------------|
Gb|------------------------------------------------------------------------|
Db|-----------4------------------------------------------------------------|
Ab|--2--2-2-2---2-------------2-(4)----------------------------------------|
Eb|---------------4--2----2-4----------------------------------------------|


then this lick
eb|-----7------------------------------------------------------------------|
Bb|--7----7----------------------------------------------------------------|
Gb|---------9-10b11--------------------------------------------------------|
Db|------------------9-----------------------------------------------------|
Ab|------------------------------------------------------------------------|
Eb|------------------------------------------------------------------------|


then this surfer type sound
eb|------------------------------------------------------------------------|
Bb|------------------------------------------------------------------------|
Gb|------------------------------------------------------------------------|
Db|------------------------------------------------------------------------|
Ab|------------------------------------------------------------------------|
Eb|---16-\-----------------------------------------------------------------|
* slide down, constantly picking


outro
eb|------------------------------------------------------------------------|
Bb|------------------------------------------------------------------------|
Gb|--4---------------------------------------------------------------------|
Db|--4---------------------------------------------------------------------|
Ab|--2---------------------------------------------------------------------|
Eb|------------------------------------------------------------------------|
* let ring

- you can figure out the order, it's easy
  any questions you know what to do
            

comments powered by Disqus
↑ Back to top | Green Day Tabs for 2000 Light Years Away. Lyrics for acoustic guitar and electric guitar. Tablatures and chords are parodies/interpretations of the original songs. You may use it for private study, scholarship, research or language learning purposes only