» » »

Goldfinger, Decision Tabs (ver.3)

Artists:  A B C D E F G H I J K L M N O P Q R S T U V W X Y Z # 

Decision Tabs (ver.3)

Goldfinger Tabs
 Rating:
4/5 (4 votes)
Decision lessons Tabs too difficult? Try these video lessons and learn fast
                Check song for plam mutes. Whole song with distortion.

  Verse                                       
e|---------------------|
B|---------------------|Check song for different palm mutes.
G|---5-----------------|
D|--5----7----5----3---|
A|-3----7----5----3----|
E|-----5----3----1-----|

  
  Something came...					                                      
e|--------------------------| Hold your hands in the power chord position to play.
B|--------------------------|
G|---5-----------5----------|
D|-----5---7-------5---5----|
A|-3---------7-3---------5--|
E|-------5-----------3------|

  What can i do...					                                      
e|-------|
B|-------|Bring palm mute off slowly, listen to song.
G|---5---|
D|--5----|
A|-3-----|
E|-------|

  Chorus                       That i had been the one...                
e|------------------------- e|-----------------------------------------------|
B|------------------------- B|-----------------------------------------------|
G|---5--------------------- G|-----------------------------------------------|
D|--5----5----7----3------- D|---7----5----3---------------------------------|
A|-3----5----7----3-------- A|--7----5----3----------------------------------|
E|-----3----5----1--------- E|-5----3----1-----------------------------------|

  Guitar solo                                       
e|---------------------------------------------------------------------------|
B|---------------------------------------------------------------------------|
G|---------------------------------------------------------------------------|
D|-2-----2-0---2-0------------2-0-----2-0------------------------------------|
A|---3-3-----3-----3------3-3-----3-3-----3----------------------------------|
E|---------------------------------------------------------------------------|

Play chorus again with palm mute. 2nd guitar does a pick slide near the end of it.

  End                                      
e|---------------------------------------------------------------------------|
B|---------------------------------------------------------------------------|
G|---5----7----9----5----7----9----9----4----5-------------------------------|
D|--5----7----9----5----7----9----9----4----5--------------------------------|
A|-3----5----7----3----5----7----7----2----3---------------------------------|
E|---------------------------------------------------------------------------|
            
Submit corrections

comments powered by Disqus
↑ Back to top | Goldfinger Tabs for Decision. Lyrics for acoustic guitar and electric guitar. Tablatures and chords are parodies/interpretations of the original songs. You may use it for private study, scholarship, research or language learning purposes only