>
 >
Decision 2

Decision 2 Bass Tabs

Goldfinger - Decision 2 chords, tabs, tablatures, lyrics

Guitar lessons | Add/correct | Request | Top 50 tabs Artists:  A B C D E F G H I J K L M N O P Q R S T U V W X Y Z 0-9

Decision 2 Bass Tabs – Goldfinger

CD, Sheet music, Poster

Do you like Decision 2? Share with your friends now
Bass Tabs
Artist - Goldfinger
Song - Decision
Album - Open Your Eye's

Intro and Verses
G|-------------------------------------------
D|-------------------------------------------
A|--3-3-3-3-3--------------------------------
E|------------5-5-5-5-5--3-3-3-3-3--1-1-1-1--

Pre chorus "something came between us..."
G|--------------------------------------
D|--------------------------------------
A|--------------------------------------
E|---3-3-3-3-5-5-5-5-3-3-3-3-3-1-1-1-1--

Pre Chorus variation
G|------------------------------------------------------
D|-------------------------------------5----------------
A|--------5-----------7--5--3---------------------3-----
E|---3-3----3---5--5------------3--3-----3--1--1----1---

"what can i do?"
G|--------------------
D|--------------------
A|--------------------
E|--3-3-3-3-3-3-3-3-3-

Chorus "so u made your decision"
G|--------------------------------------
D|--------------------------------------
A|---3-3-3-3----------------------------
E|-----------3-3-3-3--5-5-5-5--1-1-1-1--
"that i had been the one"
G|-------------------------
D|-------------------------
A|--------------------3----
E|--5-5--3-3--1-1---1---1--

Bridge "now i think i'm going crazy...."
G|----------------------------------------------------------
D|----------------------------------------------------------
A|---------------3-3-2-2-0-0-0--\12-------------------------
E|--0-0-0-1-1-1----------------------1-1-1-1-1-3-3-3-3-3-3--

Pre-Solo x2
G|----------------------------- 
D|-----------------------------
A|--3-3------------------------
E|---------5-5----3-3----1-1---

Solo x2
G|----------------------------------------- 
D|-----------------------------------------
A|---3-3-3-3-3-3---------------------------
E|---------------3-3-3-3-3-3-1-1-1-1-1-1---

Post Solo
"When you look in the mirror..."
G|--------------------------------------
D|--------------------------------------
A|--------------------------------------
E|---3-3-3-3-5-5-5-5-3-3-3-3-3-1-1-1-1--

Chorus "so u made..."
G|----------------------------------------------
D|----------------------------------------------
A|----------------------------------------------
E|----------------------------------------------
  wait until it finishes saying 'decision' and play: 
G|------------
D|------------
A|------------
E|---1-1-1-1--
 wait until he finishes saying 'missing' and play:
G|------------
D|------------
A|------------ (listen closely)
E|----/10-----

"that i had been the one"
G|-------------------------
D|-------------------------
A|-------------------------
E|--5-5--3-3--1-1---1---1--

Outro x2
G|-------------------------------- 
D|--------------------------------
A|-------7--------5--------3---3--
E|---5-5---5--3-3---3--1-1---1----

Ending
G|-----------------------------------------
D|-----------------------------------------
A|-----------------------------------------
E|--5-5-5----5-5-5------1<-<-<-let-ring!!--





Comments


Popular Goldfinger tabs & chords
Answers Bass Tabs
At The End Of The Day Bass Tabs
The Innocent 2 Bass Tabs
Question Drum Tabs
99 Red Ballons Tabs
99 Red Baloons Tabs
Decisions Tabs
Get Up 1 Tabs
Wake Up Tabs
This Lonely Place Ukulele


Song lyrics



↑ Back to top | Tablatures and chords are parodies/interpretations of the original songs. You may use it for private study, scholarship, research or language learning purposes only
© 2014 AZChords.com Contact us | Privacy policy | DMCA | Add/correct tabs | Request tabs | Top 50 tabs