>
 >
Decision 1

Decision 1 Guitar Tabs

Goldfinger - Decision 1 chords, tabs, tablatures, lyrics

Guitar lessons | Add/correct | Request | Top 50 tabs Artists:  A B C D E F G H I J K L M N O P Q R S T U V W X Y Z 0-9

Decision 1 Guitar Tabs – Goldfinger

CD, Sheet music, Poster

Do you like Decision 1? Share with your friends now
Bass TabsTabsTabs v2
Goldfinger, Decision
26/09/2006


Verse 1                          x2
e----------------------|------------------|--------------|
b----------------------|------------------|--------------|
g-5555-----------------|--555-------------|--55----------|
d-5555-7777-5555-3333--|--555-777-555-333-|--55-77-55-33-|
a-3333-7777-5555-3333--|--333-777-555-333-|--33-77-55-33-|
e------5555-3333-1111--|------555-333-111-|-----55-33-11-|
PM.... .... .... ....     ..  ..  ..  ..

Bridge:
e----3------0------3------0---------------------|
b------3------1------3------1-------------------|
g-----------------------------------------------|
d--------------------------------555555555------|
a---------0----------------------555555555------|
e--3-------------3------1--------333333333------|
PM                               ......
                                       guitar 2
                                    e------------------|
                                    b------------------|
                                    g-12-12-12---------|
                                    d-x--x--x----------|
                                    a-10-10-10---------|
                                    e------------------|

Chorus: Guitar 2 plays that riff arfter the lyrics: I guess it's you that I'll be missing.

guitar 1: x3             x1                      guitar 2
e----------------------|------------------------|----------------|
b----------------------|------------------------|----------------|
g--5555----------------|------------------------|--9/7/5---------|
d--5555-5555-7777-3333-|-77-55-3333-77-55-33----|--x/x/x---------|
a--3333-5555-7777-3333-|-77-55-3333-77-55-33----|--7/5/3---------|
e-------3333-5555-1111-|-55-33-1111-55-33-11----|----------------|

Verse 2: not much different, but guitar 2 plays this over the ending of the verse:
                              x2
e----------------------|------------------|--------------|
b----------------------|------------------|--------------|
g-5555-----------------|--555-------------|--55----------|
d-5555-7777-5555-3333--|--555-777-555-333-|--55-77-55-33-|
a-3333-7777-5555-3333--|--333-777-555-333-|--33-77-55-33-|
e------5555-3333-1111--|------555-333-111-|-----55-33-11-|
PM.... .... .... ....    ..  ..  ..  ..
                                           guitar 2
                                          |--------------|
                                          |--------------|
                                          |--55-55-55-55-|
                                          |--xx-xx-xx-xx-|
                                          |--33-33-33-33-|
                                          |--------------|


Chorus 2: again, guitar 1 plays the same, but guitar 2 plays over it with this..

guitar 2: x3
e-------------------------|
b-------------------------|
g--5555555555555-9/7/5----|
d--xxxxxxxxxxxxx-x/x/x----|
a--3333333333333-7/5/3----|
e-------------------------|

"Now I think I'm going crazy"               *  x2
e--------------------------------------|----------------|
b--------------------------------------|----------------|
g--------------55-55-2222--------------|-55-------------|
d-22222-33333--55-55-2222-33333-555555-|-55-77-55-33----|
a-22222-33333--33-22-0000-33333-555555-|-33-77-55-33----|
e-00000-11111-------------11111-333333-|----55-33-11----|
*guitar 2 plays ending of verse 2 again.

Guitar 1 plays verse, without the palm muting.
Guitar 2 plays this...
x2
e--------------------|
b--------------------|
g-55-9/7-5-9/7/5-----|
d-xx-x/x-x-x/x/x-----|
a-33-7/5-3-7/5/3-----|
e--------------------|

(when you look in the mirror)
e----------------------------------|
b----------------------------------|
g----------------------------------|
d-5555-7777-5555-3333-55555555555--|
a-5555-7777-5555-3333-55555555555--|
e-3333-5555-3333-1111-33333333333--|

Chorus 3                         x2
e---------------------|-----------------------|
b---------------------|-----------------------|
g--5555---------------|-5555------------------|
d--5555-5555-7777-332-|-5555-5555-7777-3333---|
a--3333-5555-7777-332-|-3333-5555-7777-3333---| (pick slide)
e-------3333-5555-110-|------3333-5555-1111---|
PM .... .... ....        ... .... .... ....


e------------------------|
b------------------------|
g------------------------|
d-77-55-3333-77-55-3333--|
a-77-55-3333-77-55-3333--|
e-55-33-1111-55-33-1111--|

then arfter chorus 2, play that last bit 3 times.





Comments


Popular Goldfinger tabs & chords
Damaged Bass Tabs
If Only Bass Tabs
99 Red Balloons 1 Chords
Counting The Days 1 Tabs
Goldfinger-Here In Your Bedroom Tabs
I Need To Know 1 Tabs
My Head Tabs
Stay Tabs
Tell Me 1 Tabs
Without Me Ukulele


Song lyrics



↑ Back to top | Tablatures and chords are parodies/interpretations of the original songs. You may use it for private study, scholarship, research or language learning purposes only
© 2014 AZChords.com Contact us | Privacy policy | DMCA | Add/correct tabs | Request tabs | Top 50 tabs