» » »

Decision Tabs (ver.1)

Artists:  A B C D E F G H I J K L M N O P Q R S T U V W X Y Z # 

Decision Tabs (ver.1)

Goldfinger
Rating:
5/5 (2 votes)

Hard to play? Try these video lessons and learn fast.
                Hi punks this is my first submited tab and is from one of my favorite bands
ke ay punketos esta es my primer tab y es de goldfinger
-whole song with distorsion          .=p.m
-toda la cancion con distorsion      <=let ring (dejar sonar)

intro/verse(intro/verso)both guitars(ambas liras)
e------------------------------------------------------|
b------------------------------------------------------|
g-5555-------------------555---------------55----------|
d-5555-7777-5555-3333----555-777-555-333---55-77-55-33-|
a-3333-7777-5555-3333----333-777-555-333---33-77-55-33-|
e-....-5555-3333-1111----..--555-333-111------55-33-11-|
       .... .... ....        ..  ..  ..

pre-chorus(pre-coro)gt.1/g.t 2:
e-----------------------/-3-0-3-0-3-0-------------|
b-----------------------/--3-1-3-1-3-1------------|
g-----------------------/----------------12-12-12-|
d-5<7<5<7<55555555------/-----------------x--x--x-|
a-5<7<5<7<55555555------/----------------10-10-10-|
e-3<5<3<5<33333333------/-------------------------|
          ........

chorus(coro)both guitars(ambas liras)
e---------------------|
b---------------------|
g-5555----------------|
d-5555-5555-7777-3333-|
a-3333-5555-7777-3333-|
e------3333-5555-1111-|

post-chorus(post-coro)"that i have been the one"
e----------------------------------------------|
b----------------------------------------------|
g----------------------------------------------|
d-77---55---33---------------------------------|
a-77---55---33---------------------------------|
e-55---33---11---------------------------------|

then(despues):

verse(verso)
pre-chorus(pre-coro)
chorus(coro)
post-chorus(post-coro)

bridge(puente)
e----------------------------|
b----------------------------|
g-------55-44-22-------------|
d-2<-4<-55-44-22-4<-55555555-|
a-2<-4<-33-22-00-4<-55555555-|
e-0<-2<----------2<-33333333-|
                    ........

pre-solo gt. 1      gt.2:
e-------------      e----------------|
b-------------      b-11111111111111-|
g-55----------      g----------------|
d-55-77-55-33-      d----------------|
a-33-77-55-33-      a----------------|
e----55-33-11-      e----------------|

solo:(the other gt. plays chorus)
e---------------------------|
b---------------------------|
g---------------------------|
d-10/-2-0--2-0----2-0--2-0--|
a----3----3---3-33---33---3-|
e---------------------------|

breakdown(la kebracion)
e---------- -                                   e----------|
b-----------                                    b----------|
g------------x2 times(dos veces)then(entonces): g----------|
d-5555-7777-                                    d-55555555-|
a-5555-7777-                                    a-55555555-|
e-3333-5555-                                    e-33333333-|
                                                  ........

 breakdown part2(la kebracion parte 2)/ outro
e--------------------                 /----------------------------------|
b--------------------                 /----------------------------------|
g-5555---------------                 /"-----x2-------------"------------|
d-5555-5555-7777-3333                 /-7777-9999-10-10-10-10-777-222-4--|
a-3333-5555-7777-3333                 /-7777-9999--8--8--8--8-777-222-4--|
e-....-3333-5555-1111                 /-5555-7777--8--8--8--8-555-000-2--|
       .... .... ....

outro gt.2
e-2/5-5/7-8-2/5-5/7-8<---      bye! viva mexico fregones! OMERTA
            
Hard to play? Try these video lessons and learn fast. | Correct




comments powered by Disqus
↑ Back to top | Tablatures and chords are parodies/interpretations of the original songs. You may use it for private study, scholarship, research or language learning purposes only