>
 >
If Tomorrow Never Comes

If Tomorrow Never Comes Guitar Tabs

Garth Brooks - If Tomorrow Never Comes chords, tabs, tablatures, lyrics

Guitar lessons | Add/correct | Request | Top 50 tabs Artists:  A B C D E F G H I J K L M N O P Q R S T U V W X Y Z 0-9

If Tomorrow Never Comes Guitar Tabs – Garth Brooks

CD, Sheet music, Poster

Do you like If Tomorrow Never Comes? Share with your friends now
ChordsChords v2Chords v3Chords v4TabsTabs v2Ukulele
Song  :  If Tomorrow never comes
Artist  : Ronan Keating

Verse 1

 Cm                      F                       D#                          D#

E|-----------3----------|-----------5-----------|--------3--------6-------|--------3-----------|
B|--------1-------------|--------6--------------|-----4--------3----------|-----4--------3-----|
G|-----0----------------|-----5-----------------|--3--------3-------------|--3--------3--------|
D|----------------------|--3--------------------|-------------------------|--------------------|
A|--3-------------------|-----------------------|-------------------------|--------------------|
E|----------------------|-----------------------|-------------------------|--------------------|

  F           Cm            F           D#              A#       D#             A#

--------5-----------3-----|--------5-----------3----|--------1-----------6----|--1-------------|
-----------6-----------4--|-----------6-------------|-----3-----3-----4-------|--3-------------|
-----5--------------------|-----5-----------3-------|--3-----------3----------|--3-------------|
--3--------------5--------|--3-----------1----------|-------------------------|--3-------------|
--------------3-----------|-------------------------|-------------------------|--1-------------|
--------------------------|-------------------------|-------------------------|----------------|

And the thought crosses my mind.......

--------10---11--10-----8--5----|
--------13----------------------|
------12------------------------|(Small Solo)  before Verse 2
--10--13------------------------|
--------------------------------|
--------------------------------|

Verse 2


  Cm                     F                      A#                       F          Cm

-----------3-----------|--------1------------|--1--------------1-----|--------5-----------3-----|
--------1--------------|-----1---------------|--3--------------------|-----------6-----------4--|
-----0-----------------|---------------------|--3-----------3--------|-----5--------------------|
-----------------------|--3------------------|--3--------------------|--3--------------5--------|
--3--------------------|---------------------|--1--------1-----------|--------------3-----------|
-----------------------|---------------------|-----------------------|--------------------------|


  F                        A#       D#
                                       About her in my heart.... (Small Solo 2) before Chorus

--------5----------6-----|--1--------------6-----|------------6--------------|--1--------------|
-------------4--------6--|--3-----------4-----4--|------4--6-----6--7--------|--3--------------|
-----5----------3--------|--3--------3-----------|---------------------------|--3--------------|
--3----------------------|--3--------------------|---------------------------|--3--------------|
-------------------------|--1--------------------|---------------------------|--1--------------|
-------------------------|-----------------------|---------------------------|-----------------|

Chorus

  D#           A3         D#          F         A#

--3------3--3--1------|--3------3--3--1------|--1----1----1----3p--1--|
--4------4--4--3------|--4------4--4--1------|--3----3----3-----------|
--3------3--3--3------|--3------3--3--2------|--3----3----3-----------|
--1------1--1--3------|--1------1--1--3------|--3----3----3-----------|
---------------1------|---------------3------|--1----1----1-----------|
----------------------|---------------1------|------------------------|


  D#                    F            C        F

--3------3----3------|--1------1----0------|--1-----------------------|
--4------4----4------|--1------1----1------|--1----------4--4h--6-----|
--3------3----3------|--2------2----0------|--2-----------------------|
--1------1----1------|--3------3----2------|--3------3----------------|
---------------------|--3------3----3------|--3--------3--------------|
---------------------|--1------1-----------|--1-----------------------|

That she's my only one.....

--------------------------------|
---------13--15--13-------------|
---------15-------------15--15--|  (Small Solo 3 )  only by Chorus 1
--------------------------------|
--------------------------------|
--------------------------------|

  D#        G    F      D#                         D#            A#

--3----3----3----1----|--3------------3--------|--3------3--3----1----|
--4----4----0----1----|--4------4--6-----1-----|--4------4--4----3----|
--3----3----0----2----|--3------------------3--|--3------3--3----3----|
--1----1----0----3----|--1---------------------|--1------1--1----3----|
------------2----3----|------------------------|-----------------1----|
------------3----1----|------------------------|----------------------|

                                               Is the love I gave.......
  D#          F          G

--3----3--3--1--------|--3----------------|--3---------------|
--4----4--4--1--------|--0----3-4-3-------|--0---------------|
--3----3--3--2--------|--0--0--------5--3-|--0---------------|
--1----1--1--3--------|--0----------------|--0---------------|
-------------3--------|--2----------------|--2---------------|
-------------1--------|--3----------------|--3---------------|

 Cm                     F

--------------3--------|--------3-------------|
-----------4-----------|-----------4----------|
--------5--------------|----5-----------------|
-----5-----------------|--3-------------------|
--3--------------------|----------------------|
-----------------------|----------------------|

 A#                          A#

-----------------1--------|--1----------------|
-----------3-----------4--|--3----------------|
--------3-----2-----0-----|--3----------------|
-----3--------------------|--3----------------|
--1-----------------------|--1----------------|
--------------------------|-------------------|

Verse 3

So I made a promise to myself.....

-----------3------3-----|-------------3----5---|--------3--1-----1---6---|-----8---3------1----|
--------1--1---------4--|--------6-------------|-----4-----3-----3-------|--8------4------3----|
-----0-----0------------|-----5----------------|--3--------3--3--3-------|---------3------3----|
-----------1------------|--3-------------------|-----------3--3----------|---------1------3----|
--3--------3------------|--------------------.-|-----------1-------------|----------------1----|
------------------------|----------------------|-------------------------|---------------------|

Now play this chords like Verse 1  :  F    Cm      F      D#       A#       D#

--1----------1--3--6--6---5-|
--3----3--4-----------------|
--3-------------------------| (Small Solo 4 )  before  Verse 4
--3-------------------------|
--1-------------------------|
----------------------------|

Verse 4

'Cause I've lost love.......


-----------------|-----------------3--5--|-----------3---1-------|
-----------4--4--|------------6----------|---------4-----3-------|
--------5-----5--|---------5-------------|------3--------3----3--|
--------------5--|------3----------------|---------------3----3--|
-----3--------3--|-----------------------|---------------1-------|
-----------------|-----------------------|-----------------------|

  D#       A#

--3--------1--------|
--4--------3--------|
--3--------3--------|
--1--------3--------|
-----------1--------|
--------------------|

Now play this chords like Verse 1 :   F     Cm    F      D#      A#     D#

(Small Solo 5 )  before  Chorus 2

----8--8--8--6--6--------|--1-------------------------|
----11-------------------|--3-------------------------|
-------------------------|--3-------------------------|
-------------------------|--3-------------------------|
-------------------------|--1-------------------------|
-------------------------|----------------------------|

 Ending Chorus 2
  Cm                   F                   A#
--3--------3--------|--1--------1--------|-----------------1--------|
--4--------4--------|--1--------1--------|-----------3-----------4--|
--5--------5--------|--2--------2--------|--------3-----2-----0-----|
--5--------5--------|--3--------3--------|-----3--------------------|
--3--------3--------|--3--------3--------|--1-----------------------|
--------------------|--1--------1--------|--------------------------|

    So tell that....
                      Outro
                       Cm                     F

--1-----------------|-----------------------|-----------5-----------|
--3-----------------|-----------4-----------|--------6--------------|
--3-----------------|--------5--------------|-----5-----------------|
--3-----------------|-----5--------5--------|--3--------------------|
--1-----------------|--3--------------------|-----------------------|
--------------------|-----------------------|-----------------------|

 A#

-----------------1--------|--1----------------|--------------------|
-----------3-----------4--|--3----------------|--------------------|
--------3-----2-----0-----|--3----------------|--------------------|
-----3--------------------|--3----------------|--------------------|
--1-----------------------|--1----------------|--------------------|
--------------------------|-------------------|--------------------|

Order :

Verse 1

Verse 2

Chorus 1

Verse 3

Verse 4

Chorus 2

Outro                           





Comments


Popular Garth Brooks tabs & chords
Burning The Roadhouse Down Chords
Cold Shoulder Chords
Friends In Low Places (in Correct Key Of A) Chords
It's Midnight Cinderella Chords
Last Night I Had The Strangest Dream Chords
Mr. Midnight Chords
Rodeo Or Mexico Chords
Victim Of The Game Chords
In Another's Eyes Tabs
That Ol Wind Ukulele


Song lyrics



↑ Back to top | Tablatures and chords are parodies/interpretations of the original songs. You may use it for private study, scholarship, research or language learning purposes only
© 2014 AZChords.com Contact us | Privacy policy | DMCA | Add/correct tabs | Request tabs | Top 50 tabs