>
 >
Ain't Going Down 'Till The Sun Comes Up

Ain't Going Down 'Till The Sun Comes Up Guitar Tabs

Garth Brooks - Ain't Going Down 'Till The Sun Comes Up chords, tabs, tablatures, lyrics

Guitar lessons | Add/correct | Request | Top 50 tabs Artists:  A B C D E F G H I J K L M N O P Q R S T U V W X Y Z 0-9

Ain't Going Down 'Till The Sun Comes Up Guitar Tabs – Garth Brooks

CD, Sheet music, Poster

Do you like Ain't Going Down 'Till The Sun Comes Up? Share with your friends now
Tabs
Garth Brooks - Ain't Going Down Til The Sun Comes Up (Lead)


***********************************************************************

b   =   bend                             /   =   slide up

p   =   pulloff                          x   =   dead note

~   =   vibrato                          br  =   bend & release

h   =   hammer-on                        \   =   slide down

pbr =   pre-bend & release               tr  =   trill notes

***********************************************************************


INTRO


E----3-3---3-3---3-3-------------------6-6b-6-6b-----------|
B----3-3---3-3---3-3-------------------5-5b-5-5b-8p6-6-8---|
G--5b----5b----5b----5b-5-3-5-3b--------------------7------|
D-------------------------------5-3/5----------------------|
A----------------------------------------------------------|
E----------------------------------------------------------|

                                     rake

E---3-3---3-3---3-3-----------------------15--------------------------|
B---3-3---3-3---3-3--------------------18~--18--------------------18~-|
G-5b----5b----5b----5b-5-3-5-3b-------x-------17br-p15-17--15h16------|
D------------------------------5-3/5-x-------------------17-----17----|
A---------------------------------------------------------------------|
E---------------------------------------------------------------------|

LEAD FILL BEFORE 1ST CHORUS


E--------------------|
B--5br-3-5-----------|
G--5br-3-5-3-3-------|
D-------5-5-5--------|
A-------------5-4-3--|
E--------------------|

LEAD DURING CHORUS


E--------------------------------------------|
B--------------------------------6-5-3-------|
G--5br-p3----------3b-5---3h5-3-0-----3b-----|
D--------5-5----5-5---------------------5\---|
A--------------------------------------------|
E--------------------------------------------|

1ST LEAD SOLO


E------------------------------------------------------------------|
B------------------------------------------------------------------|
G--3b-0-0-3b-0-0-3b-0-0-3b-0-0-3b-0-0-0-3b-0-0-3b-0-0-3b-0-0-5-0-0-|
D------------------------------------------------------------------|
A------------------------------------------------------------------|
E------------------------------------------------------------------|


E------------3-3---3-3---3-3---3-3---3-3----------------------------|
B------------3-3---3-3---3-3---3-3---3-3---5pbr-3-3-3-5br-3-3-------|
G--6-0-7-0-5b----5b----5b----5b----5b----5-5pbr-3-3-3-5br-3-3-------|
D------------------------------------------------5-5-------5-5/12---|
A-------------------------------------------------------------------|
E-------------------------------------------------------------------|


E------------------------------------18b--18b--18b-15--15--15--------|
B--10---10-10---10----10-------------17b--17b--17b---18--18--18b~~~--|
G--10b--10-10b--10b---10b--------------------------------------------|
D-----12------12----12---12-11-10~~~/--------------------------------|
A--------------------------------------------------------------------|
E--------------------------------------------------------------------|


2ND LEAD SOLO


E--15-15-15---15-15---15-15---15-15---15-15---15-15---------------|
B----------18b-----18b-----18b-----18b-----18b-----17br--17--15b--|
G--------------------------------------------------17br--17--15b--|
D------------------------------------------------------17--17-----|
A-----------------------------------------------------------------|
E-----------------------------------------------------------------|


E----------------------------------------------------------------------|
B----------15\--11-11-11-11/13-13-13-13/15-15-15-15\13-13-13-13\11-11--|
G----------15\--12-12-12-12/14-14-14-14/15-15-15-15\14-14-14-14\12-12--|
D--17-15-17------------------------------------------------------------|
A----------------------------------------------------------------------|
E----------------------------------------------------------------------|


E-----------------------------------------------------------|
B--11/18-18-17-17-15-15-13-13-12-12-11-10--10---------------|
G--12/19-19-17-17-15-15-14-14-12-12-11-10--10b--------------|
D---------------------------------------------12p10--10-12--|
A--------------------------------------------------12-------|
E-----------------------------------------------------------|


E-------------------------15-15--15-15---15-15---15-15----------------|
B---10--------------------15-15--15-15---15-15---15-15----------------|
G---10b----------------17b-----17b----17b-----17b-----17--15-16-17~~--|
D------12-10--10-12/17----------------------------------17------------|
A-----------12--------------------------------------------------------|
E---------------------------------------------------------------------|


FAKE ENDING


E----------15------------------------------------------------|
B------18~~--15-18br-p15-------------------------------------|
G--15-------------------17br-p15--17--15b-15b----------------|
D----17-------------------------17--17-------17-15--15tr17---|
A-------------------------------------------------17---------|
E------------------------------------------------------------|


END SOLO UP TO HARMONICA


E----3-3--3-3--3-3--3-3--3-3--3-3--3-3---------------------------|
B----3-3--3-3--3-3--3-3--3-3--3-3--3-3---------------------------|
G--5b---5b---5b---5b---5b---5b---5b---5pbr-p3-5-3h4--------------|
D--------------------------------------------5-5---5p4p3-3-5/12--|
A-------------------------------------------------------5--------|
E----------------------------------------------------------------|

                                  rake         rake

E--10-10---10-10---10-10---10-10------12-10-10-----12-10-10--|
B--11-11b--11-11b--11-11b--11-11b---11---11-11---11---11-11--|
G--------12------12------12-------12-----12-12-12-----12-12--|
D------------------------------------------------------------|
A------------------------------------------------------------|
E------------------------------------------------------------|

   rake         rake

E------12-10-10-----12-10-10-16-16b-16-16b-16-16b-16-16b-16-16b-16-16b-|
B----11---11-11---11---11-11-15-15b-15-15b-15-15b-15-15b-15-15b-15-15b-|
G--12-----12-12-12-----12-12-------------------------------------------|
D----------------------------------------------------------------------|
A----------------------------------------------------------------------|
E----------------------------------------------------------------------|


E--16-16b-16-16b-15--|
B--15-15b-15-15b-15--|
G--------------------|
D--------------------|
A--------------------|
E--------------------|

END SOLO AFTER HARMONICA


E---------------------------------------------------------------|
B--3-3--3-3--3-3--3-3--3-3--3-3--3-3--5br-p3-5-3--3-3-----------|
G--3-3b-3-3b-3-3b-3-3b-3-3b-3-3b-3-3b-------------3-3b----------|
D------------------------------------------------------5-3-3h5--|
A-------------------------------------------------------5-------|
E---------------------------------------------------------------|


E------------------------------------------------------------|
B-----------------------10-10-10--10-10-10--10-10------------|
G-----------------------10-10-10--10-10-10--10-10b-----------|
D--3-3--------------------------12--------12------12--10-12--|
A---5-5p4p3-3---------------------------------------12-------|
E----------6-3-6b-6b-3---------------------------------------|


E-------------------------------8/10-10-10-10---10-10---10-10-----------|
B--6/8-8------------------------9/11-11-11-11b--11-11b--11-11b----------|
G--5/7-7-10-7---------------------------------12------12------12--10----|
D------------10pbr-8--------------------------------------------12--12--|
A-------------------10-8--8-10------------------------------------------|





Comments


Popular Garth Brooks tabs & chords
A World Without You Chords
Rodeo Or Mexico Chords
Victim Of The Game Chords
Good Ride Cowboy Ver.2 Tabs
If Tomorrow Never Comes Intro Tabs
Night I Called Old Man Out Tabs
One Night A Day (picking Pattern) Tabs
That Ol Wind Tabs
Wrapped Up In You (real Intro) Tabs
Wild As The Wind Ukulele


Song lyrics



↑ Back to top | Tablatures and chords are parodies/interpretations of the original songs. You may use it for private study, scholarship, research or language learning purposes only
© 2014 AZChords.com Contact us | Privacy policy | DMCA | Add/correct tabs | Request tabs | Top 50 tabs