» » »

The Thunder Rolls ( Tabs (ver.1)

Artists:  A B C D E F G H I J K L M N O P Q R S T U V W X Y Z # 

The Thunder Rolls ( Tabs (ver.1)

Garth Brooks
Rating:
0/5 (0 votes)

Tabs too difficult? Try these video lessons and learn fast.
                

INTRO


   Dm           Dm9 Dm           Dm9 Dm           Dm9        
  
E-------------------------------------------------------
B-------5--5h6-5---------5--5h6-5---------5--5h6-5------
G----7-7---7----5--5--7-7---7----5--5--7-7---7----5--5--
D---7-----7-------7--7-----7-------7--7-----7-------7---
A--5--5--5----5--5--5--5--5----5--5--5--5--5----5--5----
E-------------------------------------------------------

   Dm
E----------------------
B-------5--5h6-5-------
G----7-7---7----5--5---
D---7-----7-------7----
A--5--5--5----5--5-----
E----------------------



VERSE


  Dm                 Bb                 A7
E---------------5-------------------------------------------------
B----------------------------6h8-6--------------------------------
G----7-7--7--7--7------7-7--7-----7--7----6-6--6--6-6--6--6-6--6--
D---7----7--7--7--7---8----8-------8------------------------------
A--5--5-5--5--5--5---8--8-8-----8---8----7-7--7--7-7--7--7-7--7---
E---------------------------------------5----5--5----5--5----5----

   Dm                                  Bb
E---------5-------5---------------------------------------
B----6p5-----6p5-----6p5---5--6p5---5---------------------
G----7---7---7---7---7----7---7----7-----7-7--7--7--7--7--
D---7-------7-------7----7---7----7-----8----8--8-----8---
A--5----5--5----5--5----5---5----5-----8--8-8--8--8--8----
E---------------------------------------------------------

   A7                        Dm
E-----------------------------------------------
B-------5-------5-------5---------5--5h6-5------
G----6-6--6--6-6--6--6-6--6----7-7---7----7--7--
D---7----7--7----7--7----7----7-----7------7----
A-----5-------5-------5------5--5--5----5---5---
E--5-------5-------5----------------------------

   C                  A                N/C (and the thunder rolled)
E------------------------------------------------------------------
B----3--3--3h5-----------2----2h3-2--------------------------------
G----5--5-5----5--5------2--2-2---2--------------------------------
D---5--5---------5-5---2-2-2--2---2--------------------------------
A--3--3--3----3-2-----0--0--------0--------------------------------
E------------------------------------------------------------------
            
Tabs too difficult? Try these video lessons and learn fast.




comments powered by Disqus
↑ Back to top | Tablatures and chords are parodies/interpretations of the original songs. You may use it for private study, scholarship, research or language learning purposes only