» » »

Garth Brooks, Much Too Young Tabs (ver.1)

Artists:  A B C D E F G H I J K L M N O P Q R S T U V W X Y Z # 

Much Too Young Tabs (ver.1)

Garth Brooks Tabs
 Rating:
4/5 (4 votes)
Much Too Young lessons Tabs too difficult? Try these video lessons and learn fast
                


C     X32010
G     320033
D/F#  200232
Em    022000
D     XX0232
Am7   XX2010
C9    X32003
Dsus2 XX0230
G9    3X0203

INTRO:

   G9             G              Am7
e:--------------3-----------------------------3---
B:-0-------0--------------3------1---0----1-------
G:-----2--------------0-------0-------------------
D:---0-------0------0-------0------2--------2-----
A:-------------------------------0------0---------
E:-3-----3--------3-----3-------------------------

                  D                C9
e:---------3------0H2---0----------0--------------
B:-----1-------0------------3---0-------3---1---0-
G:---2-------2--------2-------2-------0-----------
D:-------2--------0-------0-----------------------
A:-0-------------------------------3------3---3---
E:------------------------------------------------

   G9                  Dsus2                        
e:----------------------------------0-------------
B:-0----------0---------3-------3--------3--------
G:--------2---------0-------2-----------------2---
D:----0---------0-------0---------------------0---
A:------------------------------------------------
E:-3--------3-------------------------------------


G9          G               Am7
THIS OLD HIGHWAYS GETTING LONGER,
D            C9                 G   Dsus2
SEEMS THERE AIN T NO END IN SIGHT
G9                  G              Am7       
TO SLEEP WOULD BE BEST, BUT I JUST CAN T AFFORD THE REST
D                    C9               G9   Dsus2
I VE GOT A RIDE IN DENVER TOMORROW NIGHT

G9               G              Am7
I CALLED THE HOUSE BUT NO ONE ANSWERED
D                   C9                G9   Dsus2
FOR THE LAST TWO WEEKS NO ONES BEEN HOME
G9                          G               Am7
I GUESS SHE S THROUGH WITH ME, TO TELL THE TRUTH I JUST CANT SEE
        D                 C9             G9   Dsus2
WHAT S KEPT THE WOMAN HOLDING ON THIS LONG

            C                               G       D/F#      Em
AND THE WHITE LINE S GETTING LONGER AND THE SADDLES GETTING COLD
         C                  D             G
NOW I M MUCH TO YOUNG TO FEEL THIS *** OLD
           C                              G     D/F#      Em
ALL MY CARDS ARE ON THE TABLE, WITH NO ACE LEFT IN THE HOLE
         C                  D               G
NOW I M MUCH TO YOUNG TO FEEL THIS *** OLD

G9        G                Am7
THE COMPETITIONS GETTING YOUNGER, 
             D        C9            G9  Dsus2
TOUGHER BRONCS, YOU KNOW I CANT RECALL
            G9                G          Am7   
A WORN OUT TAPE OF CHRIS LEDOUX, LONELY WOMAN AND BAD BOOZE
        D               C9                G9   Dsus
SEEM TO BE THE ONLY FRIENDS I VE LEFT AT ALL


            C                               G       D/F#      Em
AND THE WHITE LINE S GETTING LONGER AND THE SADDLES GETTING COLD
         C                  D             G
NOW I M MUCH TO YOUNG TO FEEL THIS *** OLD
           C                              G     D/F#      Em
ALL MY CARDS ARE ON THE TABLE, WITH NO ACE LEFT IN THE HOLE
         C                  D 
NOW I M MUCH TO YOUNG TO FEEL THIS *** OLD

G   D/F#  Em          C                    D            G 
             LORD I M MUCH TOO YOUNG TO FEEL THIS *** OLD
            
Submit corrections

comments powered by Disqus
↑ Back to top | Garth Brooks Tabs for Much Too Young. Lyrics for acoustic guitar and electric guitar. Tablatures and chords are parodies/interpretations of the original songs. You may use it for private study, scholarship, research or language learning purposes only