» » »

Friends In Low Places Tabs (ver.1)

Artists:  A B C D E F G H I J K L M N O P Q R S T U V W X Y Z # 

Friends In Low Places Tabs (ver.1)

Garth Brooks
Rating:
4/5 (3 votes)

Tabs too difficult? Try these video lessons and learn fast.
                                         garth brooks
                     friends in low places

Capo:2nd Fret

tuning:Ebgdae

E|----------------3---0-2-|
b|------0----3---1---3----|
g|-----0----4---0---2-----|
d|----0----3---2---0------|
a|------------0-----------|
e|--3---4-----------------|

E|-------3----4-----------3----------|
b|-----0-----3---1----0-1--1---------|
g|----0-----4---0-0---------2--------|
d|---0-----3---2---2---------2-------|
a|------------0-----0----------------|
e|-3-----4---------------------------|

E|----0-2-0----2-------3-----|
b|---3-----3--1-1--0-1--1----|
g|--2--------2---2-------2---|
d|-0--------0-----0-------2--|
a|---------------------------|
e|---------------------------|

E|----0-2-0-----2--------3------3--|
b|---3-----3---1-1-----0--0----0---|
g|--2---------2---2---0-0--0--0----|
d|-0---------0-----0-0-------0-----|
a|---------------------------------|
e|---------------------------------|

E|------3----------4-3-----0----3-----------|
b|-----0-0------3---------1-1------4--3-----|
g|----0---0----4-4-------0---1----------5---|
d|---0--------3---------2---------5-5--5----|
a|---------------------0-------3------------|
e|-3--------4-------------------------------|

E|-3--2-2--2-2---2-2---2-2---2-2--2-2---------|
b|----3-3--3-3---3-3---3-3---3-3--3-3---------|
g|----2-2--2-2---2-2---2-2-0-2-2--2-2---------|
d|-0-----------0-----------0----------0-0-----|
a|-------0-----------0-----------0------------|
e|----------------------------------------0-2-|

E|-3-3---3-3---0-0---0-0----2-2---2-2------------|
b|-0-0---0-0---1-1---1-1----3-3---3-3------------|
g|-0-0---0-0---2-2---2-2----2-2---3-3------------|
d|-0-0-0-------2-2---2-2--0-----------0-0--------|
a|-----------0------------------0----------------|
e|-----------------0-----------------------0-2---|

I have already tabbed this song,but when i did i was unregistered and i accidentily put 
capo on the 1st fret instead of the 2nd fret.So here is the real deal!

Please feel free to leave any coments you want,be as harsh as you want, just tell the truth.Thanx!!

o.k who ever called me an @SS, why!
            
Tabs too difficult? Try these video lessons and learn fast.




comments powered by Disqus
↑ Back to top | Tablatures and chords are parodies/interpretations of the original songs. You may use it for private study, scholarship, research or language learning purposes only