» » »

Gang Of Four, Ether Tabs (ver.2)

Artists:  A B C D E F G H I J K L M N O P Q R S T U V W X Y Z # 

Ether Tabs (ver.2)

Gang Of Four Tabs
 Rating:
4.2/5 (5 votes)
Ether lessons Tabs too difficult? Try these video lessons and learn fast
                
Bass Intro
Intro:
G--------------|
D--------------|
A-000--9-000---|
E--------------|  X2

Guitar Kicks in with Chorus Riff

E-555-7-3-555-3-       3rd Time    E-555-7-3-555-xxx-xxx-|
B-555-7-3-555-3-                   B-555-7-3-555-xxx-xxx-|
G-555-7-3-555-3-                   G-555-7-3-555-xxx-xxx-|
D-777-9-5-777-5-                   D-777-9-5-777-xxx-xxx-|
A-777-9-5-777-5-                   A-777-9-5-777-xxx-xxx-|
E---------------  X2               E-------------xxx-xxx-|

Bass During Verse

G----
D----
A-00-      Repeat through whole of verse
E----

Bridge
  "White Noise In.....A White Room..."
E-------------------------------------|
B-------------------------------------|
G-------------------------------------|
D--6-8-10-------------6-10-8----------|
A-------------------------------------|
E-------------------------------------|

Slow Section

E--3----------|
B--3----------|
G--5~---------|
D--5~---------|
A--3~---------|   Let ring and Gradually build in speed
E-------------|

Alternate Riff before chorus

E--555-7-3-555-8--8--555-7-3-555-8--8--8--|
B--555-7-3-555-8--8--555-7-3-555-8--8--8--|
G--555-7-3-555-8--8--555-7-3-555-8--8--8--|
D--777-9-5-777-10-10-777-9-5-777-10-10-10-|
A--777-9-5-777-10-10-777-9-5-777-10-10-10-|
E--555-7-3-555-8--8--555-7-3-555-8--8--8--|  Then back until chorus riff

Thats Ether by GO4!  Play in a Sharp Staccato manner and listen to the song for timing.
            
Submit corrections

comments powered by Disqus
↑ Back to top | Gang Of Four Tabs for Ether. Lyrics for acoustic guitar and electric guitar. Tablatures and chords are parodies/interpretations of the original songs. You may use it for private study, scholarship, research or language learning purposes only