» » »

Gang Of Four, Ether Bass tabs (ver.2)

Artists:  A B C D E F G H I J K L M N O P Q R S T U V W X Y Z # 

Ether Bass tabs (ver.2)

Gang Of Four Tabs
Rating:
0/5 (0 votes)
Ether lessons Tabs too difficult? Try these video lessons and learn fast
                Bassist: Dave Allen

How to play: With funky ferocity, white boys. Think of BP or something when you play this.

Opening riff:
'-1-'-2-'-3-'-4-'-1-'-2-'-3-'-4-
G-------------------------------|
D---------11r-------------------|
A-0-0-0---9r------0-0-0(r)------|
E-------------------------------|x2

Chorus:
'-1-'-2-'-3-'-4-'-1-'-2-'-3-'-4-
G-------------------------------|
D---------11r-------------------|
A-0-0-0---9r------0-0-0---(1r)--|
E-------------------------------|x4
(Play 1r sometimes, never on 3rd repeat.)

Verse:
'-1-'-2-'-3-'-4-
G---------------|
D---------------|
A-0-0-----------|
E---------------|x8

Bridge
'-1-'-2-'-3-'-4-
G---------------|
D---------------|
A---2-----------|
E-2-------------|x16 (1st bridge)/x36 (2nd bridge)

After each bridge:
'-1-'-2-'-3-'-4-
G---------------|
D---------------|
A---------------|
E-5s------------|x1
(Wait 4 bars to come in with chorus riff again.)

Last Chorus (There may be oil):
'-1-'-2-'-3-'-4-'-1-'-2-'-3-'-4- 
G-------------------------------|
D---------11r-------------------|
A-0-0-0---9r------0-0-0---------|
E-------------------------------|x8

Last rip:
'-1-'-2-'-3-'-4-
G---------------|
D---------------|
A-0-0-0---------|
E---------------|x1
            
Submit corrections

comments powered by Disqus
↑ Back to top | Gang Of Four Bass for Ether. Lyrics for acoustic guitar and electric guitar. Tablatures and chords are parodies/interpretations of the original songs. You may use it for private study, scholarship, research or language learning purposes only