>
 >
Ether

Ether Guitar Tabs

Gang Of Four - Ether chords, tabs, tablatures, lyrics

Guitar lessons | Add/correct | Request | Top 50 tabs Artists:  A B C D E F G H I J K L M N O P Q R S T U V W X Y Z 0-9

Ether Guitar Tabs – Gang Of Four

CD, Sheet music, Poster

Do you like Ether? Share with your friends now
Bass TabsBass Tabs v2Bass Tabs v3TabsTabs v2

Standard Tuning

~ = sustain or ring out


Bass Intro
Intro:
G|------------------------|
D|----------10------------|
A|--0-0-0---9-------0-0-0-|
E|------------------------|  X2

Main Riff (I)

E|--x-x-x---2---3---x-x-x---3~------x-x-x---2---3---x-x-x---X---|
B|--x-x-x---2---3---x-x-x---3~------x-x-x---2---3---x-x-x--(5)--|
G|--2-2-2---x---x---2-2-2---0~------2-2-2---x---x---2-2-2---5~--|
D|--2-2-2-----------2-2-2-----------2-2-2-----------2-2-2---5~--|
A|--------------------------------------------------------------|
E|--------------------------------------------------------------|

E|--x-x-x---2---3---x-x-x---XXX-x---x-x-x---2---3---x-x-x---0~--|
B|--x-x-x---2---3---x-x-x---xxx-x---x-x-x---2---3---x-x-x---0~--|
G|--2-2-2---x---x---2-2-2---Xxx-x---2-2-2---x---x---2-2-2---5~--|
D|--2-2-2-----------2-2-2-----------2-2-2-----------2-2-2---x---|
A|--------------------------------------------------------------|
E|--------------------------------------------------------------|



no guitar during 1st verse

bass during 1st verse

G------------------------|
D------------------------|
A--0-0-0---------0-0-0---|
E------------------------|


Main Riff again (I) but slightly different sequence

     Dirt behind the daydream...

E|--x-x-x---2---3---x-x-x---3~------x-x-x---2---3---x-x-x---3~--|
B|--x-x-x---2---3---x-x-x---3~------x-x-x---2---3---x-x-x---3~--|
G|--2-2-2---x---x---2-2-2---0~------2-2-2---x---x---2-2-2---0~--|
D|--2-2-2-----------2-2-2-----------2-2-2-----------2-2-2-------|
A|--------------------------------------------------------------|
E|--------------------------------------------------------------|

E|--x-x-x---2---3---x-x-x---XXX-x---x-x-x---2---3---x-x-x---0~--|
B|--x-x-x---2---3---x-x-x---xxx-x---x-x-x---2---3---x-x-x---0~--|
G|--2-2-2---x---x---2-2-2---Xxx-x---2-2-2---x---x---2-2-2---5~--|
D|--2-2-2-----------2-2-2-----------2-2-2-----------2-2-2---x---|
A|--------------------------------------------------------------|
E|--------------------------------------------------------------|

(same as 1st verse)

no guitar during 2nd verse

bass during 2nd verse

G------------------------|
D------------------------|
A--0-0-0---------0-0-0---|
E------------------------|


Main Riff again (I) but slightly different sequence (again)

     Dirt behind the daydream...

E|--x-x-x---2---3---x-x-x---3~------x-x-x---2---3---x-x-x---xxx-x-|
B|--x-x-x---2---3---x-x-x---3~------x-x-x---2---3---x-x-x---xxx-x-|
G|--2-2-2---x---x---2-2-2---0~------2-2-2---x---x---2-2-2---xxx-x-|
D|--2-2-2-----------2-2-2-----------2-2-2-----------2-2-2---------|
A|----------------------------------------------------------------|
E|----------------------------------------------------------------|

E|--x-x-x---2---3---x-x-x---3~------x-x-x---2---3---x-x-x---3~----|
B|--x-x-x---2---3---x-x-x---3~------x-x-x---2---3---x-x-x---3~----|
G|--2-2-2---x---x---2-2-2---0~------2-2-2---x---x---2-2-2---0~----|
D|--2-2-2-----------2-2-2-----------2-2-2-----------2-2-2---------|
A|----------------------------------------------------------------|
E|----------------------------------------------------------------|

no bass

Bridge Riff (II)

           "White Noise In.....           A White Room..."
E-------------------------------------------------------------|
B-------------------------------------------------------------|
G--0--2--4~--------------------0--4--2~-----------------------|
D-------------------------------------------------------------| X3
A-------------------------------------------------------------|
E-------------------------------------------------------------|

4th time

E--0~-----------0~-----------0~-----0~-----0~-----0~-----|
B--0~-----------0~-----------0~-----0~-----0~-----0~-----|
G--5~-----------5~-----------5~-----5~-----5~-----5~-----|
D--------------------------------------------------------|
A--------------------------------------------------------|
E--------------------------------------------------------|

Alternate Riff (I) before chorus

E|--x-x-x---2---3---x-x-x---x---x---x-x-x---2---3---x-x-x---x--x--x-|
B|--x-x-x---2---3---x-x-x---x---x---x-x-x---2---3---x-x-x---x--x--x-|
G|--2-2-2---x---x---2-2-2---5---5---2-2-2---x---x---2-2-2---5--5--5-|
D|--2-2-2-----------2-2-2---5---5---2-2-2-----------2-2-2---5--5--5-|
A|------------------------------------------------------------------|
E|------------------------------------------------------------------|

E|--x-x-x---2---3---x-x-x---XXX-x---x-x-x---2---3---x-x-x---0~------|
B|--x-x-x---2---3---x-x-x---xxx-x---x-x-x---2---3---x-x-x---0~------|
G|--2-2-2---x---x---2-2-2---Xxx-x---2-2-2---x---x---2-2-2---5~------|
D|--2-2-2-----------2-2-2-----------2-2-2-----------2-2-2---x-------|
A|------------------------------------------------------------------|
E|------------------------------------------------------------------|


One more verse w/ no guitar, then main riff variation, then another
bridge with same riff, just drawn out longer. Then main riff 
variation again with rests/pauses, which works as the outro.


                        "There may be oil..."               
E|--x-x-x---3~------x-x-x-----------x-x-x---3~------x-x-x-----------|
B|--x-x-x---3~------x-x-x-----------x-x-x---3~------x-x-x-----------|
G|--2-2-2---0~------2-2-2-----------2-2-2---0~------2-2-2-----------|
D|--2-2-2-----------2-2-2-----------2-2-2-----------2-2-2-----------|
A|------------------------------------------------------------------|
E|------------------------------------------------------------------|


Ends sharply on the partial A chord & downbeat.





Comments


Popular Gang Of Four tabs & chords
545 Bass Tabs
Anthrax Bass Tabs
Damaged Goods 1 Bass Tabs
Ether 3 Bass Tabs
Not Great Men Bass Tabs
Return The Gift Bass Tabs
Natural's Not In It Tabs
Not Great Men Tabs
Not Great Men 1 Tabs
Woman Town Tabs


Song lyrics



↑ Back to top | Tablatures and chords are parodies/interpretations of the original songs. You may use it for private study, scholarship, research or language learning purposes only
© 2014 AZChords.com Contact us | Privacy policy | DMCA | Add/correct tabs | Request tabs | Top 50 tabs