» » »

Ether Bass tabs (ver.1)

Artists:  A B C D E F G H I J K L M N O P Q R S T U V W X Y Z # 

Ether Bass tabs (ver.1)

Gang Of Four
Rating:
3/5 (2 votes)

Hard to play? Try these video lessons and learn fast.
                Band: Gang Of Four
Bassist: Dave Allen

Intro:
G--------------|
D--------------|
A--------9-----|
E-5-5-5----5-5-|
when rest of the gang kicks in play
G----------------------|
D----------------------|
A--------9-------------|
E-5-5-5----5-5-5-7-7-7-|

Verse:
G------|
D------|
A------|
E-5-5--|

Chorus:
G-----------------------|
D-----------------------|
A--------9--------------|
E-5-5-5-----5-5-5-7-7-7-|

Bridge:
G----------|
D----------|
A----------|
E-9h7------|
Gradually go faster as the rest of the gang does

Last Chorus:
G---------------------------|
D---------------------------|
A--------9------------------|
E-5-5-5---------------------|(THERE MAY BE OIL)

end
            
Hard to play? Try these video lessons and learn fast. | Correct




comments powered by Disqus
↑ Back to top | Tablatures and chords are parodies/interpretations of the original songs. You may use it for private study, scholarship, research or language learning purposes only