» » »

Abandon Ship Tabs (ver.1)

Artists:  A B C D E F G H I J K L M N O P Q R S T U V W X Y Z # 

Abandon Ship Tabs (ver.1)

Gallows
Rating:
0/5 (0 votes)

Hard to play? Try these video lessons and learn fast.
                (Rhythm)
there is a few decent tabs for the lead guitar part to this song, but no good rhythm 
so i figured i ought to tab it

Tuning = Drop D

VERSE 1

e------------------------------------------------------------|
B------------------------------------------------------------|
G------------------------------------------------------------|
D-0--0-0-0--0-0-0--0-0-0--0-0-0-0--0-0--0-0-0--0-0-0--0-0-0--|
A-0--0-0-0--0-0-0--0-0-0--0-0-0-0--0-0--0-0-0--0-0-0--0-0-0--|
D-0--0-0-0--0-0-0--0-0-0--0-0-0-0--0-0--0-0-0--0-0-0--0-0-0--|


e------------------------------------------------------------------------|
B------------------------------------------------------------------------|
G------------------------------------------------------------------------|
D-8-8-8--8-8-8--8-8-8--8-8-8-10--10-10-10--10-10-10--10-10-10--10-10-10--|
A-8-8-8--8-8-8--8-8-8--8-8-8-10--10-10-10--10-10-10--10-10-10--10-10-10--|
D-8-8-8--8-8-8--8-8-8--8-8-8-10--10-10-10--10-10-10--10-10-10--10-10-10--|

MAYDAY MAYDAY
THE CAPTAINS LOST CONTROL AGAIN...


e------------------------------------------------------------|
B------------------------------------------------------------|
G------------------------------------------------------------|
D-0-0-0--0-0-0--0-0-0--0-0-0-0--0-0--0-0-0--0-0-0--0-0-0-----|
A-0-0-0--0-0-0--0-0-0--0-0-0-0--0-0--0-0-0--0-0-0--0-0-0-----|
D-0-0-0--0-0-0--0-0-0--0-0-0-0--0-0--0-0-0--0-0-0--0-0-0-----|


e------------------------------------------------------------------------|
B------------------------------------------------------------------------|
G------------------------------------------------------------------------|
D-8-8-8--8-8-8--8-8-8--8-8-8-10--10-10-10--10-10-10--10-10-10--10-10-10--|
A-8-8-8--8-8-8--8-8-8--8-8-8-10--10-10-10--10-10-10--10-10-10--10-10-10--|
D-8-8-8--8-8-8--8-8-8--8-8-8-10--10-10-10--10-10-10--10-10-10--10-10-10--|

THE f**kING SHIP IS BREAKING UP
GOING DOWN IN FLAMES..


THEN

e--------|
B--------|
G--------|
D-0-0-0--|
A-0-0-0--|
D-0-0-0--|

MAYDAY MAYDAY
MAN OVERBOARD AGAIN...

e------------------------------------------------------------------------|
B------------------------------------------------------------------------|
G------------------------------------------------------------------------|
D-8-8-8--8-8-8--8-8-8--8-8-8-10--10-10-10--10-10-10--10-10-10--10-10-10--|
A-8-8-8--8-8-8--8-8-8--8-8-8-10--10-10-10--10-10-10--10-10-10--10-10-10--|
D-8-8-8--8-8-8--8-8-8--8-8-8-10--10-10-10--10-10-10--10-10-10--10-10-10--|


e--------|
B--------|
G--------|
D-0-0-0--|
A-0-0-0--|
D-0-0-0--|
  . . .

THE SHARKS HAVE STARTED CIRCLING
THEY ONLY EAT THE BRAVE...


e------------------------------------------------------------------------|
B------------------------------------------------------------------------|
G------------------------------------------------------------------------|
D-8-8-8--8-8-8--8-8-8--8-8-8-10--10-10-10--10-10-10--10-10-10--10-10-10--|
A-8-8-8--8-8-8--8-8-8--8-8-8-10--10-10-10--10-10-10--10-10-10--10-10-10--|
D-8-8-8--8-8-8--8-8-8--8-8-8-10--10-10-10--10-10-10--10-10-10--10-10-10--|


CHORUS

e----------------------------------|
B----------------------------------|
G----------------------------------|
D-8---8-7---7-10---10-8---0-0-0-0--|
A-8---8-7---7-10---10-8---0-0-0-0--|
D-8---8-7---7-10---10-8---0-0-0-0--|

THE S.S. DEATH LOST EVERYTHING
NO-ONE HERE CAN f**kING SWIM
SO BABY, BABY, HOLD ME TIGHT

e---------------------------------------------------------|
B---------------------------------------------------------|
G---------------------------------------------------------|
D-8-8-8--8-8-8--8-8-8--8-8-8--7-7-7--7-7-7--7-7-7--7-7-7--|
A-8-8-8--8-8-8--8-8-8--8-8-8--7-7-7--7-7-7--7-7-7--7-7-7--|
D-8-8-8--8-8-8--8-8-8--8-8-8--7-7-7--7-7-7--7-7-7--7-7-7--|

e---------------------------------------------------------------------|
B---------------------------------------------------------------------|
G---------------------------------------------------------------------|
D-10-10-10--10-10-10--10-10-10--10-10-10--8-8-8--8-8-8--8-8-8--8-8-8--|
A-10-10-10--10-10-10--10-10-10--10-10-10--8-8-8--8-8-8--8-8-8--8-8-8--|
D-10-10-10--10-10-10--10-10-10--10-10-10--8-8-8--8-8-8--8-8-8--8-8-8--|

WHILE I DROWN MYSELF IN YOU TONIGHT
WHILE I DROWN MYSELF IN YOU

e------------------|
B------------------|
G------------------|
D-0-0-0-0----8--7--|
A-0-0-0-0----8--7--|
D-0-0-0-0----8--7--|
  . . . .

VERSE 2

e------------------------------------------------------------|
B------------------------------------------------------------|
G------------------------------------------------------------|
D-0--0-0-0--0-0-0--0-0-0--0-0-0-0--0-0--0-0-0--0-0-0--0-0-0--|
A-0--0-0-0--0-0-0--0-0-0--0-0-0-0--0-0--0-0-0--0-0-0--0-0-0--|
D-0--0-0-0--0-0-0--0-0-0--0-0-0-0--0-0--0-0-0--0-0-0--0-0-0--|


e------------------------------------------------------------------------|
B------------------------------------------------------------------------|
G------------------------------------------------------------------------|
D-8-8-8--8-8-8--8-8-8--8-8-8-10--10-10-10--10-10-10--10-10-10--10-10-10--|
A-8-8-8--8-8-8--8-8-8--8-8-8-10--10-10-10--10-10-10--10-10-10--10-10-10--|
D-8-8-8--8-8-8--8-8-8--8-8-8-10--10-10-10--10-10-10--10-10-10--10-10-10--|

MAYDAY MAYDAY
THE SHIP HAS HIT THE ROCKS AGAIN


e-------------------------------------------------------------|
B-------------------------------------------------------------|
G-------------------------------------------------------------|
D-0-0-0--0-0-0--0-0-0--0-0-0-0--0-0--0-0-0--0-0-0--0-0-0------|
A-0-0-0--0-0-0--0-0-0--0-0-0-0--0-0--0-0-0--0-0-0--0-0-0------|
D-0-0-0--0-0-0--0-0-0--0-0-0-0--0-0--0-0-0--0-0-0--0-0-0------|


e------------------------------------------------------------------------|
B------------------------------------------------------------------------|
G------------------------------------------------------------------------|
D-8-8-8--8-8-8--8-8-8--8-8-8-10--10-10-10--10-10-10--10-10-10--10-10-10--|
A-8-8-8--8-8-8--8-8-8--8-8-8-10--10-10-10--10-10-10--10-10-10--10-10-10--|
D-8-8-8--8-8-8--8-8-8--8-8-8-10--10-10-10--10-10-10--10-10-10--10-10-10--|

THIS ISNT GONNA f**kING WORK
HEADING TO OUR GRAVES..


THEN

e--------|
B--------|
G--------|
D-0-0-0--|
A-0-0-0--|
D-0-0-0--|
  . . .

MAYDAY MAYDAY
MAN OVERBOARD AGAIN...

e------------------------------------------------------------------------|
B------------------------------------------------------------------------|
G------------------------------------------------------------------------|
D-8-8-8--8-8-8--8-8-8--8-8-8-10--10-10-10--10-10-10--10-10-10--10-10-10--|
A-8-8-8--8-8-8--8-8-8--8-8-8-10--10-10-10--10-10-10--10-10-10--10-10-10--|
D-8-8-8--8-8-8--8-8-8--8-8-8-10--10-10-10--10-10-10--10-10-10--10-10-10--|


e-------------------------------------------------|
B-------------------------------------------------|
G----------------------7-----------------------7--|
D-0-0-0--0--0--0--0--0-7--0-0-0--0--0--0--0--0-7--|
A-0-0-0--0--0--0--0--0-5--0-0-0--0--0--0--0--0-5--|
D-0-0-0--0--0--0--0--0----0-0-0--0--0--0--0--0----|
  . . .  .  .  .  .  .    . . .  .  .  .  .  .

WE'RE SINKING IN THE RIVER STICKS
NO-ONE CAN ESCAPE


e------------------------------------------------------------------------|
B------------------------------------------------------------------------|
G------------------------------------------------------------------------|
D-8-8-8--8-8-8--8-8-8--8-8-8-10--10-10-10--10-10-10--10-10-10--10-10-10--|
A-8-8-8--8-8-8--8-8-8--8-8-8-10--10-10-10--10-10-10--10-10-10--10-10-10--|
D-8-8-8--8-8-8--8-8-8--8-8-8-10--10-10-10--10-10-10--10-10-10--10-10-10--|


CHORUS

e---------------------------------|
B---------------------------------|
G---------------------------------|
D-8---8-7---7-10---10-8---0-0-0-0-|
A-8---8-7---7-10---10-8---0-0-0-0-|
D-8---8-7---7-10---10-8---0-0-0-0-|

THE S.S. DEATH LOST EVERYTHING
NO-ONE HERE CAN f**kING SWIM
SO BABY, BABY, HOLD ME TIGHT

e---------------------------------------------------------|
B---------------------------------------------------------|
G---------------------------------------------------------|
D-8-8-8--8-8-8--8-8-8--8-8-8--7-7-7--7-7-7--7-7-7--7-7-7--|
A-8-8-8--8-8-8--8-8-8--8-8-8--7-7-7--7-7-7--7-7-7--7-7-7--|
D-8-8-8--8-8-8--8-8-8--8-8-8--7-7-7--7-7-7--7-7-7--7-7-7--|

e---------------------------------------------------------------------|
B---------------------------------------------------------------------|
G---------------------------------------------------------------------|
D-10-10-10--10-10-10--10-10-10--10-10-10--8-8-8--8-8-8--8-8-8--8-8-8--|
A-10-10-10--10-10-10--10-10-10--10-10-10--8-8-8--8-8-8--8-8-8--8-8-8--|
D-10-10-10--10-10-10--10-10-10--10-10-10--8-8-8--8-8-8--8-8-8--8-8-8--|

WHILE I DROWN MYSELF IN YOU TONIGHT
WHILE I DROWN MYSELF IN YOU

e----------|
B----------|
G----------|
D-0-0-0-0--|
A-0-0-0-0--|
D-0-0-0-0--|
  . . . .

e---------------------------------------------------------|
B---------------------------------------------------------|
G---------------------------------------------------------|
D-8-8-8--8-8-8--8-8-8--8-8-8--7-7-7--7-7-7--7-7-7--7-7-7--|
A-8-8-8--8-8-8--8-8-8--8-8-8--7-7-7--7-7-7--7-7-7--7-7-7--|
D-8-8-8--8-8-8--8-8-8--8-8-8--7-7-7--7-7-7--7-7-7--7-7-7--|

e---------------------------------------------------------------------|
B---------------------------------------------------------------------|
G---------------------------------------------------------------------|
D-10-10-10--10-10-10--10-10-10--10-10-10--8-8-8--8-8-8--8-8-8--8-8-8--|
A-10-10-10--10-10-10--10-10-10--10-10-10--8-8-8--8-8-8--8-8-8--8-8-8--|
D-10-10-10--10-10-10--10-10-10--10-10-10--8-8-8--8-8-8--8-8-8--8-8-8--|

WHILE I DROWN MYSELF IN YOU TONIGHT
WHILE I DROWN MYSELF IN YOU...

e----------------------------|
B----------------------------|
G----------------------------|
D-0-0--0-0-0--0-0-0-0---0----|
A-0-0--0-0-0--0-0-0-0---0----|
D-0-0--0-0-0--0-0-0-0---0----|
  . .  . . .  . . . .


BRIDGE

e-----------------------|
B-----------------------|
G-----------------------|
D-8---7-5---7--3---2-0--|
A-8---7-5---7--3---2-0--|
D-8---7-5---7--3---2-0--|

LADIES AND GENTLEMEN
MAY I HAVE YOUR ATTENTION PLEASE

e-----------------------|
B-----------------------|
G-----------------------|
D-8---7-5---7--3---2-0--|
A-8---7-5---7--3---2-0--|
D-8---7-5---7--3---2-0--|


OUTRO

THIS IS THE CAPTAIN OF YOUR SHIP
IM SORRY
WE DEPART THIS WAY

e----------------------------------------|
B----------------------------------------|
G----------------------------------------|
D-0-0--0-0--0-0--0-0-0-0--0-0--0-0--0-0--|
A-0-0--0-0--0-0--0-0-0-0--0-0--0-0--0-0--|
D-0-0--0-0--0-0--0-0-0-0--0-0--0-0--0-0--|

e-------------------------------------|
B-------------------------------------|
G-------------------------------------|
D-8-8--8-8--8-8--8-8---5-5--7-7--3-3--|
A-8-8--8-8--8-8--8-8---5-5--7-7--3-3--|
D-8-8--8-8--8-8--8-8---5-5--7-7--3-3--|

[play this bit 3 times]

YOU LEFT ME BROKEN HEARTED
BUT I NEVER LOVED YOU ANYWAY
NO I NEVER LOVED YOU ANYWAY
NO I NEVER LOVED YOU ANYWAY
NO I NEVER LOVED YOU ANYWAY

END
            
Hard to play? Try these video lessons and learn fast. | Correct




comments powered by Disqus
↑ Back to top | Tablatures and chords are parodies/interpretations of the original songs. You may use it for private study, scholarship, research or language learning purposes only