» » »

Gallows, Abandon Ship Bass tabs (ver.2)

Artists:  A B C D E F G H I J K L M N O P Q R S T U V W X Y Z # 

Abandon Ship Bass tabs (ver.2)

Gallows Tabs
Rating:
0/5 (0 votes)
Abandon Ship lessons Tabs too difficult? Try these video lessons and learn fast
                -------------------------------------------------------------------------------
			     Abandon Ship - Gallows
-------------------------------------------------------------------------------


Tuning: Drop D

I tried to do the rhythm the best i could but the notes are all there so listen to the 
for the proper rhythm, order is at the end

Riff 1
G|------------------------------------------------------------------------|
d|------------------------------------------------------------------------|
A|------------------------------------------------------------------------|
D|-0-0-0--0-0-0--0-0-0---0-0-0--0-0-0--0-0-0--0-0-0--8888(x3)-10101010(x3)|

Riff 2
G|------------------------------------------------------------------------|
d|------------------------------------------------------------------------|
A|------------------------------------------------------------------------|
D|--0-0-0-----------------------------8888(x3)-----------10101010(x3)-----|

Riff 3
G|-----------------------------------------------------------------------|
d|-----------------------------------------------------------------------|
A|-----------------------------------------------------------------------|
D|-8-87--7-10--10-8---00-00----10101010(x2)--8888(x2)--7777(x2)-888-1010-|

G|-----------------------------------------------------------------------|
d|-----------------------------------------------------------------------|
A|-----------------------------------------------------------------------|
D|--10101010(x2)--8888(x2)--7777(x2)--0-0-0-0--8--10---------------------|


Riff 4
G|-----------------------------------------------------------------------|
d|-----------------------------------------------------------------------|
A|-----------------------------------------------------------------------|
D|-8-87--7-10--10-8---00-00----10101010(x2)--8888(x2)--7777(x2)-888-1010-|

G|-----------------------------------------------------------------------|
d|-----------------------------------------------------------------------|
A|-----------------------------------------------------------------------|
D|--10101010(x2)--8888(x2)--7777(x2)--0-0-0-0-0-0-0-0-0-0-0-0---0--------|

Riff 5
G|-------------------------------------------------------------------------|
d|-------------------------------------------------------------------------|
A|-------------------------------------------------------------------------|
D|-8-87-5-7-3--3-0---------8-87-5-7-3--3-0---------------------------------|

Riff 6
G|-------------------------------------------------------------------------|
d|-------------------------------------------------------------------------|
A|-------------------------------------------------------------------7h8---|
D|-000-000-000-000-000-000 888-888-888-888-555-555-777-777-333-333---------|

Order: Riff 1 x2
       Riff 2 x2
       Riff 3 x1
       Riff 1 x2
       Riff 2 x1
       Riff 1 X1 (Different Rhythm)
       Riff 3 x1
       Riff 4 x1
       Riff 5 x1
       Riff 6 x3


| /  slide up
| \  slide down
| h  hammer-on
| p  pull-off
| ~  vibrato
| +  harmonic
| x  Mute note
===============================================================================
            

comments powered by Disqus
↑ Back to top | Gallows Bass for Abandon Ship. Lyrics for acoustic guitar and electric guitar. Tablatures and chords are parodies/interpretations of the original songs. You may use it for private study, scholarship, research or language learning purposes only