>
 >
Abandon Ship

Abandon Ship Guitar Tabs

Gallows - Abandon Ship chords, tabs, tablatures, lyrics

Guitar lessons | Add/correct | Request | Top 50 tabs Artists:  A B C D E F G H I J K L M N O P Q R S T U V W X Y Z 0-9

Abandon Ship Guitar Tabs – Gallows

CD, Sheet music, Poster

Do you like Abandon Ship? Share with your friends now
Bass TabsBass Tabs v2TabsTabs v2Tabs v3
Track #: 3

/: slide
x: palm mute
p: pull off
h: hammer on
~: let ring

intro/verse
e|---------------------------------------------------------------|
B|---------------------------------------------------------------|
G|1414-x-14-141414-141414-141414-14/10-1010-101010-101010-101010-|
D|x-x--x--x-x-x-x--x-x-x--x-x-x--x-/x--x-x--x-x-x--x-x-x--x-x-x--|
A|1212-x-12-121212-121212-121212-12/8--8-8--8-8-8--8-8-8--8-8-8--|
D|---------------------------------------------------------------|

e|------------------------------------------------------------------|
B|------------------------------------------------------------------|
G|-12/14-10-10-101010--12/14-9-9-999-1414-x-14-141414-141414-141414-|
D|-x-/x--x--x--x-x-x---x-/x--x-x-xxx-x-x--x-x--x-x-x--x-x-x--x-x-x--|
A|-10/12-8--8--8-8-8---10/12-7-7-777-1212-x-12-121212-121212-121212-|
D|------------------------------------------------------------------|

--------------------------------------------------------------------|
--------------------------------------------------------------------|
-1717-x-17-171717-171717-171717-191919--121212-121212-101010-101010-|
-x-x--x-x--x-x-x--x-x-x--x-x-x--x-x-x---x-x-x--x-x-x--x-x-x--x-x-x--|
-1515-x-15-151515-151515-151515-171717--101010-101010-8-8-8--8-8-8--|
--------------------------------------------------------------------|

-------------------------------------------------------------------|
-------------------------------------------------------------------|
-999-999-777-777---------------------------------------------------|
-xxx-xxx-xxx-xxx-000x----------------------------------------------|
-777-777-555-555-000x----------------------------------------------|
-----------------000x----------------------------------------------|


e|---------------------------------------6-----5----3--------------|
B|---------------------------------------10(x8)6(x4)5(x4)----------|
G|--12-14-10--10--10----12-14-9--9--9------------------------------|
D|--x--x--x---x---x(x3)-x--x--x--x--x(x3)--------------------------|
A|--10-12-8---8---8-----10-12-7--7--7------------------------------|
D|-----------------------------------------------------------------|

-----------------------|
-----------------------|
-12----10----9----7----|
-x-(x6)x-(x6)x(x6)x(x6)|
-10----8-----7----5----|
-----------------------|

pre-chorus/chorus
e|----------------------------------------------------------------------|
B|----------------------------------------------------------------------|
G|----------------------12----10----9----10----12-----12----10----9-----|
D|-8--7--10--8--00-0-0--x-(x4)x-(x4)x(x4)x-(x3)x-(x3)-x-(x4)x-(x4)x(x4)-|
A|-8--7--10--8--00-0-0--10----8-----7----8-----10-----10----8-----7-----|
D|-8--7--10--8--00-0-0--------------------------------------------------|

-----------------------|
-----------------------|
----------------10~--9~|
-00-0-0-0-0-0-0-x~~--x~|
-00-0-0-0-0-0-0-8~~--7~|
-00-0-0-0-0-0-0--------|

*repeat intro/verse except palm mute the end bit.

end of second verse bit
e|---------------|
B|---------------|
G|------7------7-|
D|------x------x-|
A|-0----5-0----5-|
D|-0(x9)0-0(x9)0-|
pm x      x

2nd chorus
e|------------------------------------------------------|
B|------------------------------------------------------|
G|-12----10----9----10----12----12----10----9-----------|
D|-x-(x4)x-(x4)x(x4)x-(x3)x-(x3)x-(x4)x-(x4)x(x4)-00-0-0|
A|-10----8-----7----8-----10----10----8-----7-----00-0-0|
D|------------------------------------------------00-0-0|
*repeat once, except on second time hit the last chord 12 times. Listen to the song for the timing.

bridge
e|-----------------------------------------------------------------------------|
B|-----------------------------------------------------------------------------|
G|-----------------------------------------------------------------------------|
D|-8-875-7-3-30--8-875-7-3-30----------------------0----8----------------------|
A|-8-875-7-3-30--8-875-7-3-30---12p10--10p8--10h12-0(x2)8---12p10--10p8--10h12-|
D|-8-875-7-3-30--8-875-7-3-30-00-----00----00------0----8-00-----00----00------|
pm                            xx     xx    xx             xx     xx    xx

----------------------------|
----------------------------|
-----------------------9/10-|
--5-------7-------3----x/x--|*repeat the string skipping bit till the end
--5---7p5-7---7p5-3----7/8--|
--5-00----7-00----3-00------|
pm  xx      xx      xx

end
e|--------------------------|
B|--------------------------|
G|-14----/12----/10----/14--|
D|-x-(x4)/x-(x4)/x-(x4)/x--0|
A|-12----/10----/8-----/12-0|
D|-------------------------0|





Comments


Popular Gallows tabs & chords
Death Is Birth Bass Tabs
Death Voices Bass Tabs
The Vulture Act I Chords
Abandon Ship Rhythm Tabs
Come Friendly Bombs Tabs
In The Belly Of A Shark 1 Tabs
Kill The Rhythm Tabs
Misery Intro Tabs
Rolling With The Punches Intro Tabs
Staring At The Rude Boy Tabs


Song lyrics



↑ Back to top | Tablatures and chords are parodies/interpretations of the original songs. You may use it for private study, scholarship, research or language learning purposes only
© 2014 AZChords.com Contact us | Privacy policy | DMCA | Add/correct tabs | Request tabs | Top 50 tabs