>
 >
Abandon Ship 1

Abandon Ship 1 Guitar Tabs

Gallows - Abandon Ship 1 chords, tabs, tablatures, lyrics

Guitar lessons | Add/correct | Request | Top 50 tabs Artists:  A B C D E F G H I J K L M N O P Q R S T U V W X Y Z 0-9

Abandon Ship 1 Guitar Tabs – Gallows

CD, Sheet music, Poster

Do you like Abandon Ship 1? Share with your friends now
Bass TabsBass Tabs v2TabsTabs v2Tabs v3
This is a tab for Abandon Ship by the Gallows. Unless your on Guitar Pro, the only tabs 
can find for this song aren't that good, so I tabbed the guitar myself.

*NOTE*
I have only tabbed the lead guitar. Don't know the rhythm in every part. The parts I do 
I'll put down.

*KEY*
su = slide up
sd = slide down
*  = palm mute
h  = hammer on
p  = pull off
x  = scratch

00:00
|---------------------------------------------------------------------|
|---------------------------------------------------------------------|
|---14-14-14--14-14-14--14-14-14--14-14-14sd1010-101010-101010-101010-|
|---x--x--x---x--x--x---x--x--x---x--x--x---x-x--x-x-x--x-x-x--x-x-x--|
|---12-12-12--12-12-12--12-12-12--12-12-12sd8-8--8-8-8--8-8-8--8-8-8--|
|---------------------------------------------------------------------|
|(Rhythm Guitar)
|----------------------------------------------------------------|
|----------------------------------------------------------------|
|----------------------------------------------------------------|
|---0-0-0---0-0-0---0-0-0---0-0-0-0--0-0---0-0-0---0-0-0--0-0-0--|
|---0-0-0---0-0-0---0-0-0---0-0-0-0--0-0---0-0-0---0-0-0--0-0-0--|
|---0-0-0---0-0-0---0-0-0---0-0-0-0--0-0---0-0-0---0-0-0--0-0-0--|

00:04
|--------------------------------------------------------|
|--------------------------------------------------------|
|---10-12-su-14-sd-1010101010--10-12-su-14-sd-9-9-9-9-9--|
|---x--x-----x-----x-x-x-x-x---x--x-----x-----x-x-x-x-x--|
|---8--10-su-12-sd-8-8-8-8-8---8--10-su-12-sd-7-7-7-7-7--|
|--------------------------------------------------------|
|(Rhythm Guitar)
|-----------------------------------------------------------------------|
|-----------------------------------------------------------------------|
|-----------------------------------------------------------------------|
|---8-8-8--8-8-8--8-8-8--8-8-8--10-10-10--10-10-10--10-10-10--10-10-10--|
|---8-8-8--8-8-8--8-8-8--8-8-8--10-10-10--10-10-10--10-10-10--10-10-10--|
|---8-8-8--8-8-8--8-8-8--8-8-8--10-10-10--10-10-10--10-10-10--10-10-10--|

This rhythm part is repeated again when the lead does this:

00:09
|---------------------------------------------------------------------------|
|---------------------------------------------------------------------------|
|---14-14-14--14-14-14--14-14-14--14-16-17-17-17--17-17-17--17-17-17--19-19-|
|---x--x--x---x--x--x---x--x--x---x--x--x--x--x---x--x--x---x--x--x---x--x--|
|---12-12-12--12-12-12--12-12-12--12-14-15-15-15--15-15-15--15-15-15--17-17-|
|---------------------------------------------------------------------------|

00:14
|-------------------------------------------------------|
|-------------------------------------------------------|
|---12-12-12-12--10-10-10-10--9--9--9--9---7--7--7--7---|
|---x--x--x--x---x--x--x--x---x--x--x--x---x--x--x--x---|
|---10-10-10-10--8--8--8--8---7--7--7--7---5--5--5--5---|
|-------------------------------------------------------|

"MAYDAY MAYDAY"
00:18
|---------------|
|---------------|
|---*---*-*-----|
|---0---0-0-----|
|---0---0-0-----|
|---0---0-0-----|

"MAN OVERBOARD AGAIN"
00:23
|--------------------------------------------------------|
|--------------------------------------------------------|
|---12-su-14-sd-1010101010--10-12-su-14-sd-9-9-9-9-9-----|
|---x-----x-----x-x-x-x-x---x--x-----x-----x-x-x-x-x-----|
|---10-su-12-sd-8-8-8-8-8---8--10-su-12-sd-7-7-7-7-7-----|
|--------------------------------------------------------|

00:27
|-------------6--6--6--6--6--6-6-6------------------------|
|-------------10-10-10-10-10-101010-6--6--6--6--6--6--6---|
|---*---*-*-------------------------9--9--9--9--9--9--9---|
|---0---0-0-----------------------------------------------|
|---0---0-0-----------------------------------------------|
|---0---0-0-----------------------------------------------|

00:32
|-------------------------------------------------------|
|-------------------------------------------------------|
|---12-12-12-12--10-10-10-10--9--9--9--9---7--7--7--7---|
|---x--x--x--x---x--x--x--x---x--x--x--x---x--x--x--x---|
|---10-10-10-10--8--8--8--8---7--7--7--7---5--5--5--5---|
|-------------------------------------------------------|

"THE S.S.DEATH LOST EVERYTHING..."
00:36
|-----------------------------------------------------|
|-----------------------------------------------------|
|--------------------------------------------*--*--*--|
|---8------8--7------8--10------10--8-----0--0--0--0--|
|---8------8--7------8--10------10--8-----0--0--0--0--|
|---8------8--7------8--10------10--8-----0--0--0--0--|

00:45
|------------------------------------------------------------|
|------------------------------------------------------------|
|---12-12-12-12--10-10-10-10--9--9--9--9--10-10-10-12-12-12--|
|---x--x--x--x---x--x--x--x---x--x--x--x--x--x--x--x--x--x---|
|---10-10-10-10--8--8--8--8---7--7--7--7--8--8--8--10-10-10--|
|------------------------------------------------------------|

|-----------------------------------------------------------------|
|-----------------------------------------------------------------|
|---12-12-12-12--10-10-10-10--9--9--9--9-----*--*--*--*--*--*--*--|
|---x--x--x--x---x--x--x--x---x--x--x--x--0--0--0--0--0--0--0--0--|
|---10-10-10-10--8--8--8--8---7--7--7--7--0--0--0--0--0--0--0--0--|
|-----------------------------------------0--0--0--0--0--0--0--0--|

00:56
|---------------|
|---------------|
|---10---9------|
|---x----x------|
|---8----7------|
|---------------|

00:58
|---------------------------------------------------------------------|
|---------------------------------------------------------------------|
|---14-14-14--14-14-14--14-14-14--14-14-14sd1010-101010-101010-101010-|
|---x--x--x---x--x--x---x--x--x---x--x--x---x-x--x-x-x--x-x-x--x-x-x--|
|---12-12-12--12-12-12--12-12-12--12-12-12sd8-8--8-8-8--8-8-8--8-8-8--|
|---------------------------------------------------------------------|

|--------------------------------------------------------|
|--------------------------------------------------------|
|---10-12-su-14-sd-1010101010--10-12-su-14-sd-9-9-9-9-9--|
|---x--x-----x-----x-x-x-x-x---x--x-----x-----x-x-x-x-x--|
|---8--10-su-12-sd-8-8-8-8-8---8--10-su-12-sd-7-7-7-7-7--|
|--------------------------------------------------------|

01:07
|---------------------------------------------------------------------------|
|---------------------------------------------------------------------------|
|---14-14-14--14-14-14--14-14-14--14-16-17-17-17--17-17-17--17-17-17--19-19-|
|---x--x--x---x--x--x---x--x--x---x--x--x--x--x---x--x--x---x--x--x---x--x--|
|---12-12-12--12-12-12--12-12-12--12-14-15-15-15--15-15-15--15-15-15--17-17-|
|---------------------------------------------------------------------------|

|-------------------------------------------------------|
|-------------------------------------------------------|
|---12-12-12-12--10-10-10-10--9--9--9--9---7--7--7--7---|
|---x--x--x--x---x--x--x--x---x--x--x--x---x--x--x--x---|
|---10-10-10-10--8--8--8--8---7--7--7--7---5--5--5--5---|
|-------------------------------------------------------|

"MAYDAY MAYDAY"
01:16
|---------------|
|---------------|
|---*---*-*-----|
|---0---0-0-----|
|---0---0-0-----|
|---0---0-0-----|

"MAN OVERBOARD AGAIN"
01:21
|--------------------------------------------------------|
|--------------------------------------------------------|
|---12-su-14-sd-1010101010--10-12-su-14-sd-9-9-9-9-9-----|
|---x-----x-----x-x-x-x-x---x--x-----x-----x-x-x-x-x-----|
|---10-su-12-sd-8-8-8-8-8---8--10-su-12-sd-7-7-7-7-7-----|
|--------------------------------------------------------|

01:26
|-----------------------------------------------------------|
|-------------------------6su8-------------------------6su8-|
|---*---*-*---*--*--*--*--4su6---*---*-*---*--*--*--*--4su6-|
|---0---0-0---0--0--0--0---------0---0-0---0--0--0--0-------|
|---0---0-0---0--0--0--0---------0---0-0---0--0--0--0-------|
|---0---0-0---0--0--0--0---------0---0-0---0--0--0--0-------|

|-------------------------------------------------------|
|-------------------------------------------------------|
|---12-12-12-12--10-10-10-10--9--9--9--9---7--7--7--7---|
|---x--x--x--x---x--x--x--x---x--x--x--x---x--x--x--x---|
|---10-10-10-10--8--8--8--8---7--7--7--7---5--5--5--5---|
|-------------------------------------------------------|

"THE S.S.DEATH LOST EVERYTHING..."
01:35
|-----------------------------------------------------|
|-----------------------------------------------------|
|--------------------------------------------*--*--*--|
|---8------8--7------8--10------10--8-----0--0--0--0--|
|---8------8--7------8--10------10--8-----0--0--0--0--|
|---8------8--7------8--10------10--8-----0--0--0--0--|

01:43
|------------------------------------------------------------|
|------------------------------------------------------------|
|---12-12-12-12--10-10-10-10--9--9--9--9--10-10-10-12-12-12--|
|---x--x--x--x---x--x--x--x---x--x--x--x--x--x--x--x--x--x---|
|---10-10-10-10--8--8--8--8---7--7--7--7--8--8--8--10-10-10--|
|------------------------------------------------------------|

|--------------------------------------------------------|
|--------------------------------------------------------|
|---12-12-12-12--10-10-10-10--9--9--9--9-----*--*--*--*--|
|---x--x--x--x---x--x--x--x---x--x--x--x--0--0--0--0--0--|
|---10-10-10-10--8--8--8--8---7--7--7--7--0--0--0--0--0--|
|-----------------------------------------0--0--0--0--0--|

01:52
|------------------------------------------------------------|
|------------------------------------------------------------|
|---12-12-12-12--10-10-10-10--9--9--9--9--10-10-10-12-12-12--|
|---x--x--x--x---x--x--x--x---x--x--x--x--x--x--x--x--x--x---|
|---10-10-10-10--8--8--8--8---7--7--7--7--8--8--8--10-10-10--|
|------------------------------------------------------------|

|--------------------------------------------------------|
|--------------------------------------------------------|
|---12-12-12-12--10-10-10-10--9--9--9--9-----*--*--*--*--|
|---x--x--x--x---x--x--x--x---x--x--x--x--0--0--0--0--0--|
|---10-10-10-10--8--8--8--8---7--7--7--7--0--0--0--0--0--|
|-----------------------------------------0--0--0--0--0--|

02:02
|----------------------------|
|----------------------------|
|---*--*--*--*---------------|
|---0--0--0--0--0--0--0--0---|
|---0--0--0--0--0--0--0--0---|
|---0--0--0--0--0--0--0--0---|


"LADIES AND GENTLEMEN"
02:05
|-------------------------------------------------------|
|-------------------------------------------------------|
|-------------------------------------------------------|
|---0--------------8-----8-7-5--------7-------3-------2-|
|---0--------------8-----8-7-5--------7-------3-------2-|
|---0--------------8-----8-7-5--------7-------3-------2-|

|-------------------------------------------------------|
|-------------------------------------------------------|
|-------------------------------------------------------|
|---0--------------8-----8-7-5--------7-------3-------2-|
|---0--------------8-----8-7-5--------7-------3-------2-|
|---0--------------8-----8-7-5--------7-------3-------2-|

02:25
|---------------------------------------------------------------------|
|---------------------------------------------------------------------|
|---------------------------------------------------------------------|
|---0--------------------------------0--------------------------------|
|---0--*-*-12p10-*-*-10p8-*-*-10h12--0--*-*-12p10-*-*-10p8-*-*-10h12--|
|---0--0-0-------0-0------0-0--------0--0-0-------0-0------0-0--------|
|(Rhythm Guitar)
|------------------------------------------------------------------|
|------------------------------------------------------------------|
|------------------------------------------------------------------|
|---0-0-0---0-0-0---0-0-0---0-0-0-0--0-0---0-0-0---0-0-0---0-0-0---|
|---0-0-0---0-0-0---0-0-0---0-0-0-0--0-0---0-0-0---0-0-0---0-0-0---|
|---0-0-0---0-0-0---0-0-0---0-0-0-0--0-0---0-0-0---0-0-0---0-0-0---|


|--------------------------------------------------------------------------|
|---------------------------------------------------------------------5h6--|
|--------------------------------------------------------------------------|
|---8--------------------------------5-----------7-----------3-------------|
|---8--*-*-12p10-*-*-10p8-*-*-10h12--5--*-*-7p5--7--*-*-8p7--3--*-*--------|
|---8--8-8-------8-8------8-8--------5--5-5------7--7-7------3--3-3--------|
|(Rhythm Guitar)
|-------------------------------------------------------------------------|
|-------------------------------------------------------------------------|
|-------------------------------------------------------------------------|
|---8-8-8--8-8-8--8-8-8--8-8-8--5-5-5--5-5-5--7-7-7--7-7-7--3-3-3--3-3-5--|
|---8-8-8--8-8-8--8-8-8--8-8-8--5-5-5--5-5-5--7-7-7--7-7-7--3-3-3--3-3-5--|
|---8-8-8--8-8-8--8-8-8--8-8-8--5-5-5--5-5-5--7-7-7--7-7-7--3-3-3--3-3-5--|

This whole thing is played four times, three times with the rhythm.

03:07
|-------------------------------------------------|
|-------------------------------------------------|
|---14-14-14-14--12-12-12-12--10-10-10-10--14-----|
|---x--x--x--x---x--x--x--x---x--x--x--x---x----0-|
|---12-12-12-12--10-10-10-10--8--8--8--8---12---0-|
|-----------------------------------------------0-|


That's the whole song. Not 100% about some of the rhythm, but the rest sounds pretty 
if it sucks and you wish to abuse me.

Enjoy the tab (Y)





Comments


Popular Gallows tabs & chords
In The Belly Of A Shark Bass Tabs
Misery 1 Bass Tabs
Staring At The Rude Bois 2 Bass Tabs
Cross Of Lorraine Tabs
In The Belly Of A Shark 4 Tabs
Just Because You Sleep Next To Me Doesn't Mean You're Safe Tabs
Kill The Rhythm Tabs
Nervous Breakdown Tabs
Rolling With The PunchesIntro Tabs
The Vulture Act 1 Ukulele


Song lyrics



↑ Back to top | Tablatures and chords are parodies/interpretations of the original songs. You may use it for private study, scholarship, research or language learning purposes only
© 2014 AZChords.com Contact us | Privacy policy | DMCA | Add/correct tabs | Request tabs | Top 50 tabs