» » »

Kabet Tabs (ver.5)

Artists:  A B C D E F G H I J K L M N O P Q R S T U V W X Y Z # 

Kabet Tabs (ver.5)

Gagong Rapper
Rating:
0/5 (0 votes)

Hard to play? Try these video lessons and learn fast.
                (Intro)
kabet
gagong rapper


e|---3-1-0-------3-1-0---------------------------------------------------------|
B|-1-------3-1~--------3-5-8~--3-1-3-5-8~--3-1-3-5-1--------1-0-1-1-3-5-3-1-0-1|
G|----------------------------------------------------0-2~---------------------|
D|-----------------------------------------------------------------------------|
A|-----------------------------------------------------------------------------|
E|-----------------------------------------------------------------------------|

e|-----------------------|
B|-1-1-3-5-3-1-0-1~------|
G|-----------------------|
D|-----------------------|
A|-----------------------|
E|-----------------------|

sana po magustuhan niyo
galing sa mabaitnabata
            
Hard to play? Try these video lessons and learn fast. | Correct




comments powered by Disqus
↑ Back to top | Tablatures and chords are parodies/interpretations of the original songs. You may use it for private study, scholarship, research or language learning purposes only