» » »

Gagong Rapper, Kabet Tabs (ver.2)

Artists:  A B C D E F G H I J K L M N O P Q R S T U V W X Y Z # 

Kabet Tabs (ver.2)

Gagong Rapper Tabs
 Rating:
4.2/5 (5 votes)
Kabet lessons Tabs too difficult? Try these video lessons and learn fast
                send me message/comments guys en gals..


aw mga tol eto n tlg totoo toh..check nio pa kung gus2 nio..e2 tlg first time ko tong
dahil first time to my mga kulang n parts kea kau n bahala..standard tuning lang toh..try
to the music wyl ur trying to figure dis thing out ok?here goes nothing...

standard tuning

INTRO:
do chords pattern:
C,G,Am,Em,F,Am,Em,F,G,C..
-----3------------3----------3----------3-----------------------------|
---1----6-5-3-2-----6-5-3-5-----5-1-3-5---5-1-3-5-1-------------------|
-----------------------------------------------------0-2--------------|
----------------------------------------------------------------------|
----------------------------------------------------------------------|
----------------------------------------------------------------------|

----------------------------------------------------------------------|
-1-0-1-1-3-5-3-1-0-1-0-1-3-5-3-1-0-1----------------------------------|
----------------------------------------------------------------------|
----------------------------------------------------------------------|
----------------------------------------------------------------------|
----------------------------------------------------------------------|

Verse:
chorus:
chords lang ah..hehe
C,G,Am,Em,F,Am,Em,F,G,C

and eto p mga tol..para mas exciting ang pagkapa nio.=P
2nd guitar toh..

-------3-3---5-3----------------------------------------------------|
-1/3-5-----3--------------------------------------------------------|
--------------------------------------------------------------------|
--------------------------------------------------------------------|
--------------------------------------------------------------------|
--------------------------------------------------------------------|

kau na kumapa nung iba den post nio pra naman makua ko den..hekhek
galiangan naten lahat nyenye
astig tong kantang kabet..kea lng ndi ko naranasan yn e..kau nalang mahurt pra skin wyl
listenin'..ok ok?
pakirate po pls..tenchu ol ailaveu laveu...
            
Submit corrections

comments powered by Disqus
↑ Back to top | Gagong Rapper Tabs for Kabet. Lyrics for acoustic guitar and electric guitar. Tablatures and chords are parodies/interpretations of the original songs. You may use it for private study, scholarship, research or language learning purposes only