>
 >
Kabet

Kabet Chords

Gagong Rapper - Kabet chords, tabs, tablatures, lyrics

Guitar lessons | Add/correct | Request | Top 50 tabs Artists:  A B C D E F G H I J K L M N O P Q R S T U V W X Y Z 0-9

Kabet Chords – Gagong Rapper

CD, Sheet music, Poster

Do you like Kabet? Share with your friends now
ChordsChords v2TabsTabs v2Tabs v3Tabs v4Tabs v5Ukulele
uhm..1st time ko lng po pro kapa ko lang po lahat yan,(yabang), pwo ung intro sure na 
ako jan.. kahit isabay nyo pa sa song...

nga pla dedicate ko 'to sa ex qo..ung nging kabet qo..huhuhu lab u parin hon qo...=( un lng...

intro:
--------------------------------------------------------------------------|
---10-8-7-5-3-"tap"-7--10-8-7-5-7-10--5-3-5-7-10--5-3-5-7-3---------------|
-7----------------------------------------------------------2-2-4---------|
--------------------------------------------------------------------------|
--------------------------------------------------------------------------|
--------------------------------------------------------------------------|

--------------------------------------------------------------------------|
-3-2-3---3-7-5-3-2-3---3-5-7-5-3-2-3--------------------------------------|
-------2-------------2----------------------------------------------------|
--------------------------------------------------------------------------|
--------------------------------------------------------------------------|
--------------------------------------------------------------------------|


verse I.

D F#m Bm F#m Bm F#m 
A D

(basta pede xa istrum pro may kasay xang............)
--------------------------------------------------------------------------|
---10-8---10-8---10-8----(di ko na nabilang eh..)-------------------------|
-7------7------7----------------------------------------------------------|
--------------------------------------------------------------------------|
--------------------------------------------------------------------------|
--------------------------------------------------------------------------|

-----------------------------------------------------------------------|
-3-2-3---3-7-5-3-2-3---3-5-7-5-3-2-3-----------------------------------|
-------2-------------2-------------------------------------------------|(2x)
-----------------------------------------------------------------------|
-----------------------------------------------------------------------|
-----------------------------------------------------------------------|


Kay sakit naman isipin na
sa puso mo ako’y pangalawa
sa tuwing makikita kitang kasama siya
pinipikit ko aking mga mata
at sa gabing kasama mo siya halos hindi ako makahinga
kayakap ko ang bote ng tequila
nagmumukmok sa ibabaw ng lamesa
naghihintay haggang sumapit ang umaga ng muli kang makasama.

Ano ang ating lagay
hindi mapalagay ako’y nasasaktan pag hawak mo kanyang kamay
sa kanya ka sa tanghali
akin ka sa gabi
pagilas sa umaga wala kana sa tabi
meron kahati gusto kita na mapasaakin
kung pwede lang ba sana sa kanya kita nakawin
at lagi mong iisipin kung hindi ka para sa akin
magmula pang salimutin na ikaw mahal ko rin.


-chorus-

D F#m Bm F#m Bm F#m 
A D

Sa puso koy nag-iisa
kahit merong iba kahit hindi tama
ang ginagawa sinta
basta bay makasama lang kita
kahit kapiling mo pa siya.

At wag ng mangamba kahit sabihin na
kalimutan ka di ko to makakaya
basta bay makasama lang kita kahit kapiling mo pa siya

verse II.

(gnun din.. ulitin nyo nlng...)tinatamad na ko..hehe


-verse2-

I`t really hurts ang magmahal ng ganito
kung sino pang pinili ko hindi makuha ng buo
haggang ganun na lang nga
kailangan ko itong taggapin
sa puso mo meron na ngang iba umaangkin
at alam ko na rin na mayroon nagmamayari
sa pag ibig sa iyo ako itong nakikihati
at ano man ang mangyari hindi ko kayang manumbat
at kahit pailihin mo ako sa lahat
gaano man kabigat sa puso ko itong aminin
hindi dadaing wag ka lang mawawalay sa akin
masakit man na isipin na ako ang naghihiram
kaya pinasya mo na huwag na ngang ipaalam
at kahit hindi ito tama ako ay sumugal
kahit pa nga alam kong mayiba kang mahal
binigay ko ang lahat kahit ito ang natamo
sa pag-ibig nang iba ako ngayon nakikisalo

-chorus-

D F#m Bm F#m Bm F#m 
A D

Sa puso koy nag-iisa
kahit merong iba kahit hindi tama
ang ginagawa sinta
basta bay makasama lang kita
kahit kapiling mo pa siya.

At wag ng mangamba kahit sabihin na
kalimutan ka di ko to makakaya
basta bay makasama lang kita kahit kapiling mo pa siya

-verse3-

Sa situwasyon natin ito hindi ko alam san tutungo
alam ko pag mahirap pag mali pero mahirap rin isuko
paano ko masusuot sing sing sayo na dala,
kung sa paglalagyan nito meron na pa lang na una
ng makilala mo ako di ko binalak mang-gulo
gusto ko lang mapatunayan na ika’y mahal ko,
yung binuo yung buhay ko sa mga na-una na saglit
kahit ang tawag nga sa akin dihamak na kabit.

Oo nga ikaw sa akin at ako ay sa iyo,
at ikaw din sa kanya at siya din sa iyo,
yun ay aking tinanggap para makasama ka lang
pero sa ng wag sabihin pa na kasama ka lang
para sa narin wag na tayong dumating diyan
tiisin ko ang lahat ke sana wag lang yan
at kahit alam kong mahirap tanggapin
na mas na una siya sa iyo kesa sa akin

-chorus-

D F#m Bm F#m Bm F#m 
A D

Sa puso koy nag-iisa
kahit merong iba kahit hindi tama
ang ginagawa sinta
basta bay makasama lang kita
kahit kapiling mo pa siya.

At wag ng mangamba kahit sabihin na
kalimutan ka di ko to makakaya
basta bay makasama lang kita kahit kapiling mo pa siya ...

hayun.. tpos na!! sana ok lng... uhm.. if may suggestions/comments kau..
or friendster...


pag ginanahan ako ulet.. SANA!! naman!! hehe.. kakapain ko pa..





Comments


Popular Gagong Rapper tabs & chords
Ignition Tagalog Chords
Sanay Totoo Chords
Torete Chords
Huling Hiling Tabs
Kabet 2 Tabs
Kabet 4 Tabs
Kabet Intro Tabs
Kabet Intro 1 Tabs
Sana Intro 1 Tabs
Kabet Ukulele


Song lyrics



↑ Back to top | Tablatures and chords are parodies/interpretations of the original songs. You may use it for private study, scholarship, research or language learning purposes only
© 2014 AZChords.com Contact us | Privacy policy | DMCA | Add/correct tabs | Request tabs | Top 50 tabs