» » »

Kabet Tabs (ver.1)

Artists:  A B C D E F G H I J K L M N O P Q R S T U V W X Y Z # 

Kabet Tabs (ver.1)

Gagong Rapper
Rating:
4/5 (3 votes)

Hard to play? Try these video lessons and learn fast.
                (Intro)
intro:

e|-----------------|---------------------|-----------------|
B|--10--8--7-------|--10--8--7----7--10--|----------7--10--|
G|-----------9--7--|-----------9---------|--9--7--9--------|
D|-----------------|---------------------|-----------------|
A|-----------------|---------------------|-----------------|
E|-----------------|---------------------|-----------------|

e|----------------|-----------|---------|-------|----------|----------------|
B|----------7-----|-----------|---------|----7--|----------|----------------|
G|--9--7--9----7--|-----------|--7-6-7--|--7----|-9-7pause-|-7-9-11-9-7-6-7-|
D|----------------|--7--7--9--|---------|-------|----------|----------------|
A|----------------|-----------|---------|-------|----------|----------------|
E|----------------|-----------|---------|-------|----------|----------------|

OR

e|---------------|------------------|----------------|
B|---------------|------------------|----------------|
G|--10-8-7-------|--10-8-7----7-10--|----------7-10--|
D|---------10-8--|---------10-------|--10-8-10-------|
A|---------------|------------------|----------------|
E|---------------|------------------|----------------|

e|----------------|----------|---------|-------|-----------|-----------------|
B|----------------|----------|---------|-------|-----------|-----------------|
G|-----------7----|----------|---------|----7--|-----------|------7----------|
D|--10-8-10----8--|----------|--8-7-8--|--8----|-10-8pause-|-8-10---10-8-7-8-|
A|----------------|--8-8-10--|---------|-------|-----------|-----------------|
E|----------------|----------|---------|-------|-----------|-----------------|
            
Hard to play? Try these video lessons and learn fast. | Correct




comments powered by Disqus
↑ Back to top | Tablatures and chords are parodies/interpretations of the original songs. You may use it for private study, scholarship, research or language learning purposes only