» » »

Kabet Tabs (ver.3)

Artists:  A B C D E F G H I J K L M N O P Q R S T U V W X Y Z # 

Kabet Tabs (ver.3)

Gagong Rapper
Rating:
0/5 (0 votes)

Tabs too difficult? Try these video lessons and learn fast.
                KABET by GAGONG RAPPER


INTRO:

e|------------------------------------------------------------------------------|
B|----8-6-5------8-6-5---5-8--------5-8--5-----5---------------------5----------|
G|--5-------7-5~-------7------7-5-7--------5-7---5\-0-0-2~-5-4-5-0-5---7-5-4-5--|
D|------------------------------------------------------------------------------|
A|------------------------------------------------------------------------------|
E|------------------------------------------------------------------------------|

e|--------------------|
B|--------5-----------|
G|--0-5-7---7-5-4-5~--|
D|--------------------|
A|--------------------|
E|--------------------|

e|--------------5-----5-----5---5-------------------5------------------------|
B|----5-6-8-8-----8-----8---------8-8------6-5--------8-8---------5----------|
G|--5---------5-----5-----5---5-------5~-7-----7~-5-------5~-5--7---7-5-4-5--|
D|---------------------------------------------------------------------------|
A|---------------------------------------------------------------------------|
E|---------------------------------------------------------------------------|


| /  slide up
| \  slide down
| h  hammer-on
| p  pull-off
| ~  vibrato
| +  harmonic
| x  Mute note
===============================================================================
            
Tabs too difficult? Try these video lessons and learn fast.




comments powered by Disqus
↑ Back to top | Tablatures and chords are parodies/interpretations of the original songs. You may use it for private study, scholarship, research or language learning purposes only