>
 >
Nocturne Op 9 No 2 1

Nocturne Op 9 No 2 1 Guitar Tabs

Frederic Chopin - Nocturne Op 9 No 2 1 chords, tabs, tablatures, lyrics

Guitar lessons | Add/correct | Request | Top 50 tabs Artists:  A B C D E F G H I J K L M N O P Q R S T U V W X Y Z 0-9

Nocturne Op 9 No 2 1 Guitar Tabs – Frederic Chopin

CD, Sheet music, Poster

Do you like Nocturne Op 9 No 2 1? Share with your friends now
TabsTabs v2Tabs v3Tabs v4
Chopin Nocturne Op 9 No 2
12/18/01


|--|------------------------|--------------3-----1-----------|------------------------|
|--|3-------1-3-1-----------|3-0---------------3-----0-4-1-3-|1-----3-----------------|
|--|------------------3-----|----0-1-0---0---0-----1-----0---|----2-----2-3---0-0-----|
|3-|--0-3---4-----0-3---0-3-|--3-------4-----3---------------|--1-----0-----0---------|
|--|1-----1-----1-----0-----|--------------2-----3-----3-----|----------------------4-|
|--|------------------------|3-------------------------------|1-----2-----3-----0-6---|

|--5-3-1-----------------------|--------------------------------------------|
|--------4-3-4-----------------|3-----1-3-1-3-1---1-3-1-------1---1-------1-|
|--3---2-------0-2-3-----------|----------------4-------3-------3---3-2-3---|
|3-----1-------------0-3---0-3-|--0-3-----1-------4-------3-----3-----------|
|------------------1-----1-----|1-1---1---------------1-5---0---------------|
|1-----1-----------------------|--------------------------------------------|

|------------------4-3---1-----------|------------------------------------------------------------------|
|3---------1---4-3-----3-------4-1-3-|1-3-1-3-1-3-1-3-1-3-1-3-1-3-1-3-1-3-1-3-113-----3-3---------------|
|------1-----4-------------1-4-------|--------------------------------------------4-5---2-2-3---0-------|
|3-4-5---5-----------------------5---|--------------------------------------------------0-----0---------|
|------------------------3-----3-----|----------------6-----------------------------------------------4-|
|3-----------------------------------|1-----------------------------------------------2-----3-----0-6---|

|--5-3-1-----------------------|------------------------|
|--------4-3-4-----------------|1-----3---1-1-----------|
|--3---2-------0-2-3-------2-3-|----2---2-------0-0-----|
|3-----1-------------0-3---0-3-|----------------------2-|
|------------------1-----1-----|--3-----3-----3-----3---|
|1-----1-----------------------|1-----1-----0-----0-----|

|----------------------------|1-----0---------------|------------------------|
|------------1---------------|3-------3-1-----------|------------------------|
|3-3-3-3-2-3---3-3-----------|1-1-1-0-------0-2-----|3-0-3-2-0-2-------0-0-2-|
|1-1---4-----------0-3-3-0-3-|3-3-3-3-3-2-----3-0-0-|--0-0---2-2-3-4-4-3-2-1-|
|----------------1-----1-----|2-----2---3-3---------|----1-3-1-3-0-4-2-2-1-3-|
|----------------------------|----------------------|3-----------1-0-------1-|


|----------------------------------------------------|--------------------------2-3-4-3-------1-2-3---1-----------|
|------3---------------3-1-1---------1---1---------1-|3-------------1---1-3-4-3---------3-4-5-------3-------4-1-3-|
|----3-------------1-2-2---------3-----3---3-2-3-----|------1---3-4---4---------------------------------1-4---0---|
|0-3-----3-2-3-4-3-----1-------0-3---3-----------3---|3-4-5---5---------------------------------------------------|
|----1---1-----1-------------1-----0-----------------|------------------------------------------------3-----3-----|
|----------------------------------------------------|3-----------------------------------------------------------|


|------------------------------------------------------------------|
|1-3-1-3-1-3-1-3-1-3-1-3-1-3-1-3-1-3-1-3-1-3-----3-3---------------|
|--------------------------------------------4-5---2-2-3---0-------|
|--------------------------------------------------0-----0---------|
|----------------6-----------------------------------------------4-|
|1-----------------------------------------------2-----3-----0-6---|


|--5-3-2-3-5-3-------------------------|------------------------------------|------------------------|
|--------------3-4-6-4-----------------|--------------0-1-------------------|----1---1-------1-----1-|
|----------------------4-5-7-5-1-2-3-2-|----0---0-1-2-----3-3-------3-3-----|--2-----2-----0-----0-0-|
|3-------------------------------------|2-3---3-4---------------0-3-3-3-----|------0-------------2-2-|
|1-------------------------------------|----------------------1---------0-1-|3---------3-3-----------|
|--------------------------------------|------------------------------------|1-----------0-----3-----|

|------------------------------------|------------------------|
|------------------------------------|----3---0-------1-----3-|
|------3-----------------3---------3-|--1-----------0-0---2-2-|
|------4-----------3-------------3---|3-----2-3-0---2-2-0-3-3-|
|1-1-1-1-0-1-3-1-1---0---------------|2-----------3-----0-----|
|----------------------4---3-2-1-----|------3-----------------|


|------------------------|----------------------------------------------|------------------------------------|
|--------1---------------|----------------------------------------------|0---------------------------0---1---|
|--0-3---0---------0-0-2-|------3---------------------------------------|------------------1-0-----1-----0---|
|--0-----2---3-4-4-3-2-2-|--0-0-3-------------0-----3-------------------|3-------------1-0-----0-3-----1---0-|
|1-----0---0-0-4-2-2-1-3-|1-----------------0---3-3---1-1-3-1-3-1-0-1-3-|----------3-2-----------------3-----|
|--------3---1-0-------1-|1-------0-1-2-1-4-----------------------------|3-2-3-4-3---------------------------|

|------------------------------------------------------------------|
|--------------------------------------------------3---------------|
|--------------------------------------------------2-------3-----3-|
|1-0---0---0---0---0---0---0---0---0---0---0-----0-4-----0---------|
|3---3---3---3---3---3---3---3---3---3---3---2-3-----0-1-------4---|
|------------------------------------------------------3-----3-----|


|----------------------------------------------|------------------------|--------------------------------6-5-3-|
|----------------------------------------------|------1---1-3-----------|------------------3---------------3---|
|--2-0---------------------------------3-------|3-------3---------3-----|3-------5-3-5-3-5-----3-5-3-2-3---3---|
|3-----3-2-1-----------------0-------3-----0-3-|--1-4---4-----0-3-3-0-3-|--1-4-----4---4-----3-3---------------|
|1-----------3-0-----------0-1-3-1-1-----1-----|1-----1-----1-----1-----|1-----1-----------1-------------------|
|----------------1-0-1-2-3---------------------|------------------1-----|--------------------------------6-----|

|1---0---------------------------108-6-5-3-|
|------4-------------1---1-----------------|
|--2---2-------0-2-3---3---3-2-3-----------|
|--3---3-2-3-4-----0-----------------------|
|1-----------------1-------------7---------|
|------------------------------------------|


|2-1-0-0-----------------------|------------------------------------|
|--1-----4-4-3-3-1-------------|------------------------------------|
|--2-------2---2---3-----3-----|----3-3---------------------3-3-----|
|----------1---1-----0-3-3-0-3-|1-4-------------------0-0-3---3-0-3-|
|1-----1-----------1-----------|1-----1-3-1-3-1-3-1-3---1-----------|
|------------------------------|------------------------------------|

|------------------------2-6-8-10------1-6-6-5-3-|
|----------------------4-------------3-----------|
|--------------------3---------7-3-3---------3-3-|
|4-1---1-0-1-----1-4---------10------------------|
|6-------------1---------------------------3-----|
|----1-------2-----------------------------------|


|2-1-0---------6-------3-|2-----------1-----1-|
|------4-3-----3-----1-1-|----------1-----1---|
|--2-----2-2-3-3-3---3-0-|2-------2-----2-----|
|--1-----4-----------2-2-|1-----1-------------|
|------------------------|----3---------------|
|1-----2-----3-----0-----|1-1-----------------|

|1-2-1-2-1-2-1-2-1-2-1-2-1-2-1-2-1-2-1-2-1-2-1-2-1-2-1-2-1-2-1-2-1-2-1-2-1-2-1-2-1-2-1-2-1-2-1-2-1-2-1-2-1-2-1-2-1-2-1-2-1-2-1-2-0-1-0---1---|
|--------------------------------------------------------------------------------------------------------------------------------------4---4-|
|--------------------------------------------------------------------------------------------------------------------------------------------|
|--------------------------------------------------------------------------------------------------------------------------------------------|
|--------------------------------------------------------------------------------------------------------------------------------------------|
|--------------------------------------------------------------------------------------------------------------------------------------------|

|--------------------------------------------------------------------------|
|3-4-3-1-3-1---1-----------------------------------------------------------|
|------------3---3-2-3-2-0-2-0---0-----------------------------------------|
|------------------------------3---3-1-3-1-0-1-0---0-----------------------|
|------------------------------------------------3---3-1-3-1-0-1-0---0-----|
|------------------------------------------------------------------3---3-1-|

|----------------8-6-6-5-8-5-5-3-6-3-3-1-5-1-1---3-------1---------------------------|
|------------1-4-------------------------------4---4-4-3---3-3-1-4-1-1-0-3-0-3-1-4-1-|
|----------2-------------------------------------------------------------------------|
|------1-3---------------------------------------------------------------------------|
|--0-3-------------------------------------------------------------------------------|
|1-----------------------------------------------------------------------------------|

|----------------------------------------------------------------------------------------|
|1-0-3-0-3-1-4-1-1-0-3-0-3-1-4-1-1-0-3-0-3-1-4-1-4-1-4-1-4-1-4-1-4-1-4-1-4-1-4-1-4-1-4-1-|
|----------------------------------------------------------------------------------------|
|----------------------------------------------------------------------------------------|
|----------------------------------------------------------------------------------------|
|----------------------------------------------------------------------------------------|

|--------------------------------------------------------------------------------------------|
|4-1-4-1-4-1-4-1-4-1-4-1-4-1-4-1-4-1-4-1-4-1-4-1-4-1-4-1-4-1-4-1-4-1-4-1-4-1-4-1-------------|
|------------------------------------------------------------------------------------0---2-0-|
|----------------3---------------------------------------------------------------3-2---3-----|
|--------------------------------------------------------------------------------------------|
|--------------------------------------------------------------------------------------------|


|--------------------------------8---108-1110|8-1011108-------8-------------------|
|--------------------8---108-1110--12--------|----------111011--11108-----8-------|
|------------8---108---10----------------8---|------------------------109---108---|
|8---108-1210--12----------------------------|----------------------------------12|
|--12----------------------------------------|------------------------------------|
|--------------------------------------------|------------------------------------|

|------------------------------------------------|--------------------------|
|--3-4-3-----------------------------------------|--------------------------|
|5-------5-3-2-3-5-3-2---------------------------|----------------------2-5-|
|----------------------5-3-2-5-3-----------------|--------------------3-----|
|--------------------------------6-5-3-5-6-5-3---|----3-----------3-6-------|
|----------------------------------------------6-|5-6---6-5-3-1-5-----------|


|5-3---------------------|------------------------------------|------------------------|6-------------||
|----6-4-3-6-4---3-------|------------------------------------|----3-----3---------3-6-|------3-------||
|--------------4---5---3-|2-3-2-3-2-3-2-3-2-3-2-3-2-3-3-2-0-2-|3-----3-----3-----3-----|3-----------3-||
|--------------------5---|------------------------------------|--3-----3-------3-----3-|----0-----0---||
|------------------------|------------------------------------|5-----5-----5-5---------|--1-----1-----||
|------------------------|1-----------------------------------|------------------------|--------------||





Comments


Popular Frederic Chopin tabs & chords
Fantasie Impromptu Op 66 Tabs
Nocturne Op 9 No 2 Tabs
Nocturne Op 9 No 2 2 Tabs
Nocturne Op 9 No 2 3 Tabs
Prelude 16 Tabs
Prelude Op 28 No 7 Tabs
Prelude Op 28 Nr 4 Tabs
Prleude Tabs
Tristesse Etude Op10 No3 Tabs
Valse Op 64 Tabs


Song lyrics



↑ Back to top | Tablatures and chords are parodies/interpretations of the original songs. You may use it for private study, scholarship, research or language learning purposes only
© 2014 AZChords.com Contact us | Privacy policy | DMCA | Add/correct tabs | Request tabs | Top 50 tabs