» » »

Frederic Chopin, Tristesse Etude Op10 No3 Tabs (ver.1)

Artists:  A B C D E F G H I J K L M N O P Q R S T U V W X Y Z # 

Tristesse Etude Op10 No3 Tabs (ver.1)

Frederic Chopin Tabs
 Rating:
4/5 (4 votes)
Tristesse Etude Op10 No3 lessons Tabs too difficult? Try these video lessons and learn fast
                Etude Op.10 No.3 (Tristesse/famous as No Other Love)
- Frederic Chopin



made it in key of C.



e||-----------------------|
B||-----------------------|
G||--------------------0--|
D||-----------------------|
A||-----------------------|
E||-----------------------|


--------------------------|-----0--0-----0-----------|-----------0--5--------3--|
--1-----0--1--3-----------|-----------3---1----------|-----6--6-----------3-----|
-----0------0----0-----0--|-----0--0--------0-----0--|------0--5-------4--------|
--------2-----------3-----|-----------3--------2-----|--------------------------|
--3-----------------------|--------------3-----------|--3-----------------------|
--------------3-----------|--3-----------------------|--------------3-----------|


-----0--------------------|-----0--0-----------------|--0--1-----0--1--3--0--1--|
--6-----0-----3-----------|-----------3--1-----------|--------3-----------------|
-----------5-----0-----0--|-----0--0--------0-----0--|--3-----------------------|
--------------------3-----|-----------3---2----2-----|--------------3-----------|
--3-----------------------|--------------3-----------|--3-----------------------|
--------------3-----------|--3-----------------------|--------------------------|


--5----------------2-0----|-------2-0-----3----------||---0---------------------|
--------3---------------3-|------------3---0---------||----1----0--1--3---------|
-----5-----5-----0--------|-----2------------0-----0-||*-----0------0----0-----0|
--3-----------------------|--0------------------3----||*--------2-----------3---|
--------------------------|--------------------------||---3---------------------|
--------------3-----------|---------------3----------||---------------3---------|


-----0--0-----0-----------|-----------0--5--------3--|-----0--------------------|
-----------3---1----------|-----6--6-----------3-----|--6-----0-----3-----------|
-----0--0--------0-----0--|------0--5-------4--------|-----------5-----0-----0--|
-----------3--------2-----|--------------------------|--------------------3-----|
--------------3-----------|--3-----------------------|--3-----------------------|
--3-----------------------|--------------3-----------|--------------3-----------|


-----0--0-----------------|--3--5--5-----------------|--7--8--8--7------7-------|
-----------3--1-----------|-----------8------8-------|---------7--9-10-----9--10|
-----0--0--------0-----0--|--3--5--7---9-10-----9--10|--7--9----------9---------|
-----------3---2----2-----|-----------7---10---------|--------------------------|
--------------3-----------|--3-----5-----8-----------|--------------------------|
--3-----------------------|--------------------------|--0-----------------------|


-8--10--7--8--10-12-8--10-|-12-------------10--------|--7-----------8--7--5-----|
--7---7--7--7--10-10-10-10|-------------------13-10--|--------8--------------5--|
-7--7---7--7--11-11-11-10-|-12----12-----------------|-----7-----7--------------|
-----------------0--------|----10----10--------------|--------------------------|
--------------------------|-10----------10-----------|--10----------0-----------|
--------------------------|--------------------------|--------------------------|


--3-----------5--3--------|--0-----------------------|--0-----------------------|
--------0-----------6-----|-----------------3--1-----|--------------------------|
-----0-----0-----------5--|-----0-----0------1----3--|-----0-----0-----0-----0--|
--------------3-----------|--------2-----------------|--------2-----2-----2-----|
--------------------------|--3-----------------------|--3------------3----------|
--0-----------------------|--------------1-----------|--------------------------|


-------------------------||--0-----------------------|-------------------|------||
-------------------------||--------------------------|-----------0--1----|--1---||
-----0-----0-------0----*||-----0-----0-----0-----0--|-----0------0----0-|---0--||
--2-----2-----2---------*||--------2-----2-----2-----|--2-----2-----2----|--2---||
---3-----------3---------||--3------------3----------|---3---------------|---3--||
-------------------------||--------------------------|-------------------|------||



||    ||
||    ||
||*  *||
||*  *||  --means repeat then proceed to the last part
||    ||
||    ||
            
Submit corrections

comments powered by Disqus
↑ Back to top | Frederic Chopin Tabs for Tristesse Etude Op10 No3. Lyrics for acoustic guitar and electric guitar. Tablatures and chords are parodies/interpretations of the original songs. You may use it for private study, scholarship, research or language learning purposes only