» » »

Funeral March Tabs (ver.1)

Artists:  A B C D E F G H I J K L M N O P Q R S T U V W X Y Z # 

Funeral March Tabs (ver.1)

Frederic Chopin
Rating:
5/5 (8 votes)

Hard to play? Try these video lessons and learn fast.
                theme from Piano Sonata No 2 in Bbm, 3rd movement - Opus 35


tuning E A D G B E

|-----------|-----------|-------------|-------------|---------0---|
|-----------|-----------|---------1-0-|-0-----------|-1-1-1-1---3-|
|-2-2-2-2---|-2-2-2-2---|-2-2-2-2-----|---2-2-2-2---|-------------|
|-2-3---2-3-|-2-3---2-3-|-2-3---2-3---|-2---3---2-3-|-2-3---2-3---|
|-0---------|-0---------|-0-----------|-0-----------|-0-----------|
|-----------|-----------|-------------|-------------|-------------|



------------|-5-3-1-0-0---|-5-3-1-0-0---|-------------|-------------|
3-1-1-1-1---|-----------1-|-----------1-|---------1-0-|-0---------0-|
------------|-------------|-------------|-2-2-2-2-----|---2-2-2-2-0-|
2---3---2-3-|-2---3---2-3-|-2---3---2-3-|-2-3---2-3---|-2---3---2---|
0-----------|-0-------0---|-0-------0---|-0-----------|-0-----------|
------------|-------------|-------------|-------------|-----------3-|



--------------|-0---------|---------------|-----------|-------------|
1---------0-1-|-1---0-----|-----------0-1-|-1---0-----|--tr~--------|
0-----0-2-----|-0---0-----|-------1-2-----|-2---1-----|-0-(2)-0-0---|
2-2-3---------|---------3-|-2-2-4---------|-2---------|-2-----0-2---|
3-------------|-----------|-0-------------|-----------|---------3---|
--------------|-3-3-------|---------------|-0-0-------|-3-----------|


 tr~
0-(1)-0---|-------------|---------------|---------------|-0---------|
1-----0---|---------1-0-|-0-------------|-----------0-1-|-1---0-----|
1-------2-|-2-2-2-2-----|---2-2-2-2-----|-------0-2-----|-0---0-----|
--------2-|-2-3---2-3---|-2---3---2---0-|-2-2-3---------|---------3-|
--------0-|-0-----------|-0---------3---|-3-------------|-----------|
0---------|-------------|---------------|---------------|-3-3-------|


                                           tr~
--------------|-----------|-------------|-0-(1)-0---|-------------|
----------0-1-|-1---0-----|--tr~--------|-1-----0---|---------1-0-|
------1-2-----|-2---1-----|-0-(2)-0-0---|-1-------2-|-2-2-2-2-----|
2-2-4---------|-2---------|-2-----0-2---|---------2-|-2-3---2-3---|
0-------------|-----------|---------3---|---------0-|-0-----------|
--------------|-0-0-------|-3-----------|-0---------|-------------|


          Fine
-------------|-0---1-0-----|---5-3---|-1---3-1-0---|---7-3---|-----1-0-----|
0------------|-1-------3-0-|-0-------|-0---------3-|-1-------|-1---2---3-2-|
--2-2-2-2--2-|-2-----------|-0-------|-0-----------|-0-------|-2---0-------|
2---3---2--2-|-------------|-3-----0-|-------------|-2-------|-------------|
0----------0-|-3-3---------|---------|-------------|-3-------|-3-3-0-------|
-------------|-------------|-3-------|-3-3---------|-------3-|-------------|


                                Repeat from the start till Fine
------0-1---0---|-----5-3-----|--------||
3-2-3---------3-|-1-------6---|-3----1-||
----------2-----|-----------0-|-4----0-||
0---------------|-------------|-3----2-||
----------------|-------------|------3-||
--------1-------|-2-2-3-------|-3--3---||
            
Hard to play? Try these video lessons and learn fast. | Correct




comments powered by Disqus
↑ Back to top | Tablatures and chords are parodies/interpretations of the original songs. You may use it for private study, scholarship, research or language learning purposes only