>
 >
Nocturne Op 9 No 2 2

Nocturne Op 9 No 2 2 Guitar Tabs

Frederic Chopin - Nocturne Op 9 No 2 2 chords, tabs, tablatures, lyrics

Guitar lessons | Add/correct | Request | Top 50 tabs Artists:  A B C D E F G H I J K L M N O P Q R S T U V W X Y Z 0-9

Nocturne Op 9 No 2 2 Guitar Tabs – Frederic Chopin

CD, Sheet music, Poster

Do you like Nocturne Op 9 No 2 2? Share with your friends now
TabsTabs v2Tabs v3Tabs v4



Lead (Right Hand)


     Q    Q    Q        Q     Q     Q       Q     Q     Q     
E||------------6----|--15-----L-----L----|-------13----15----|
B||-----------------|--------------------|-------------------|
G||-----------------|--------------------|-------------------|
D||-----------------|--------------------|-------------------|
A||-----------------|--------------------|-------------------|
E||-----------------|--------------------|-------------------|


                                                           |-3-|  
   Q     Q     Q        Q     Q    Q        Q     Q    S S S S S  
--13-----L-----L----|--11-----L----6----|--15-----L----7-8-7-6-7-|
--------------------|-------------------|------------------------|
--------------------|-------------------|------------------------|
--------------------|-------------------|------------------------|
--------------------|-------------------|------------------------|
--------------------|-------------------|------------------------|


   Q     Q     Q        Q     Q     Q        Q    Q     Q     
--20-----L----15----|--18-----L-----L----|--16---------15----|
--------------------|--------------------|-------------------|
--------------------|--------------------|-------------------|
--------------------|--------------------|-------------------|
--------------------|--------------------|-------------------|
--------------------|--------------------|-------------------|


   Q    Q    Q        Q    Q     Q        Q    Q    Q       Q    Q    Q     
--13--------------|--15---------10----|--11--------------|--8--------------|
------------------|-------------------|------------------|-----------------|
------------------|-------------------|------------------|-----------------|
------------------|-------------------|------------------|-----------------|
------------------|-------------------|------------------|-----------------|
------------------|-------------------|------------------|-----------------|


  Q     Q     Q        E   E   E   E  E   E      Q     Q     Q     
--6----22----20----|--18--16--15--16--8--10--|--11-----L-----L----|
-------------------|-------------------------|--------------------|
-------------------|-------------------------|--------------------|
-------------------|-------------------------|--------------------|
-------------------|-------------------------|--------------------|
-------------------|-------------------------|--------------------|


                                                |--3--|              
  Q    Q    Q        Q    Q    Q        E   E   S  S  S  E   E   E   
------------6----|--15--------------|--13--15--13-15-13-12--13--15--|
-----------------|------------------|-------------------------------|
-----------------|------------------|-------------------------------|
-----------------|------------------|-------------------------------|
-----------------|------------------|-------------------------------|
-----------------|------------------|-------------------------------|


                               |--3--|                                     
   Q     Q     Q       E   E   S  S  S  E   E   E      E  E  E  E  E   E   
--13-----L----11----|-----13--11-13-11-10--11--13--|--15--7--8--9--8--13--|
--------------------|------------------------------|----------------------|
--------------------|------------------------------|----------------------|
--------------------|------------------------------|----------------------|
--------------------|------------------------------|----------------------|
--------------------|------------------------------|----------------------|


   E   E   E   E   E   E      Q     Q     Q        Q     Q     Q     
--12--16--15--21--20--15--|--18-----L-----L----|--16-----L----15----|
--------------------------|--------------------|--------------------|
--------------------------|--------------------|--------------------|
--------------------------|--------------------|--------------------|
--------------------------|--------------------|--------------------|
--------------------------|--------------------|--------------------|


   |---3---|   |-3-|  |--3--|                                      
   E   E   E   E   S  S  S  S  S  S  S  T  T     Q     Q     Q     
--13--15--13--15--13-15-13-15-13-15-13-12-13-|--15----15----10----|
---------------------------------------------|--------------------|
---------------------------------------------|--------------------|
---------------------------------------------|--------------------|
---------------------------------------------|--------------------|
---------------------------------------------|--------------------|


   Q     Q     Q       Q    Q    Q       Q     Q     Q     
--11-----L-----L----|--8----L----L----|--6----22----20----|
--------------------|-----------------|-------------------|
--------------------|-----------------|-------------------|
--------------------|-----------------|-------------------|
--------------------|-----------------|-------------------|
--------------------|-----------------|-------------------|


   E   E   E   E     E   E      Q    Q     Q        Q    Q     Q     
--18--16--15--16--16g8--10--|--11----6----15----|--11----6----15----|
----------------------------|-------------------|-------------------|
----------------------------|-------------------|-------------------|
----------------------------|-------------------|-------------------|
----------------------------|-------------------|-------------------|
----------------------------|-------------------|-------------------|


   Q     Q     Q        Q    Q    Q       Q    Q    Q       H.             
--11-----L----23----|---L--------------|-----------------|---------------||
---8-----L----20----|---L--------------|--4--------------|---------------||
--------------------|------------------|--0--------------|---------------||
--------------------|------------------|-----------------|---------------||
--------------------|------------------|-----------------|---------------||
--------------------|------------------|-----------------|---------------||





Rhythm (Left Hand_


*Notice* Low E sting is dropped to D# (Eb)


      H.              Q    Q    Q       Q    Q    Q       Q    Q    Q     
E ||---------------|-----------------|------------4----|-----------------|
B ||---------------|------------8----|-----------------|------------8----|
G ||---------------|-------8---------|-------7----4----|-------8---------|
D ||---------------|-------5----8----|-------6---------|-------5----8----|
A ||---------------|--6--------------|--6--------------|--6--------------|
D#||---------------|-----------------|-----------------|-----------------|


  Q    Q    Q       Q    Q    Q       Q    Q    Q       Q    Q    Q     
-----------------|-------0----3----|-------0----6----|-----------------|
------------8----|-----------------|-----------------|-------2----5----|
-------8---------|-------0----3----|-------0----5----|------------3----|
-------5----8----|-----------------|-----------------|-------3---------|
--5--------------|--3--------------|--3--------------|-----------------|
-----------------|-----------------|-----------------|--2--------------|


  Q    Q    Q       Q    Q    Q       Q    Q    Q       Q    Q    Q     
------------1----|------------4----|-------1----3----|------------3----|
-------1---------|-------3---------|------------3----|-------4----1----|
------------1----|------------3----|-------0---------|-----------------|
-------3---------|-------3---------|-----------------|-------5---------|
-----------------|--1--------------|--2--------------|--3--------------|
--2--------------|-----------------|-----------------|-----------------|


  Q    Q    Q       Q    Q    Q       Q    Q    Q       Q    Q    Q     
------------2----|------------4----|------------4----|-----------------|
-------4----1----|-------4----4----|-------3---------|------------8----|
-----------------|------------3----|------------3----|-------8---------|
-------4---------|-------3---------|-------3---------|-------5----8----|
--0--------------|--1--------------|--1--------------|-----------------|
-----------------|-----------------|-----------------|--0--------------|


  Q    Q    Q       Q    Q    Q       Q    Q    Q       Q    Q    Q     
-----------------|-----------------|------------4----|-----------------|
------------8----|------------8----|-----------------|------------8----|
-------8---------|-------8---------|-------7----4----|-------8---------|
-------5----8----|-------5----8----|-------6---------|-------5----8----|
--6--------------|--6--------------|--6--------------|--6--------------|
-----------------|-----------------|-----------------|-----------------|


  Q    Q    Q       Q    Q    Q       Q    Q    Q       Q    Q    Q     
-----------------|-------0----3----|-------0----6----|-----------------|
------------8----|-----------------|-----------------|-------2----5----|
-------8---------|-------0----3----|-------0----5----|------------3----|
-------5----8----|-----------------|-----------------|-------3---------|
--5--------------|--3--------------|--3--------------|-----------------|
-----------------|-----------------|-----------------|--2--------------|


  Q    Q    Q       Q    Q    Q       Q    Q    Q       Q    Q    Q     
------------1----|------------4----|-------1----3----|------------3----|
-------1---------|-------3---------|------------3----|-------4----1----|
------------1----|------------3----|-------0---------|-----------------|
-------3---------|-------3---------|-----------------|-------5---------|
-----------------|--1--------------|--2--------------|--3--------------|
--2--------------|-----------------|-----------------|-----------------|


  Q    Q    Q       Q    Q    Q       Q    Q    Q       Q    Q    Q     
------------2----|------------4----|------------4----|-----------------|
-------4----1----|-------4----4----|-------3---------|-----------------|
-----------------|------------3----|------------3----|-------3---------|
-------4---------|-------3---------|-------3---------|-----------------|
--0--------------|--1--------------|--1--------------|------------1----|
-----------------|-----------------|-----------------|--0--------------|


  Q    Q    Q       Q    Q    Q       Q    H           Q    Q    Q     
-----------------|------------6----|--L-------------|-----------------|
-----------------|------------4----|--L-------------|-----------------|
-----------------|-----------------|----------------|-----------------|
-------8---------|-----------------|----------------|-----------------|
--6--------------|--6----L---------|----------------|--1--------------|
------------7----|-----------------|----------------|--0--------------|


  H.             
---------------||
---------------||
---------------||
---------------||
---------------||
---------------||



************************************
| L   Let Ring
| /   slide up
| \   slide down
| h   hammer-on
| p   pull-off
| ~   vibrato
| +   harmonic
| x   Mute note
| b   Bend
| pb  Pre-bend
| br  Bend release
| pbr Pre-bend release
| brb Bend release bend

************************************





Comments


Popular Frederic Chopin tabs & chords
Fantasie Impromptu Tabs
Fantasie Impromptu Op 66 Tabs
Fantasie-impromptu In C Minor Tabs
Funeral March Tabs
Nocturne In Fm Tabs
Prelude Op 28 Nr 4 Tabs
Prleude Tabs
Valse Tabs
Valse In Em Tabs
Waltz Op 69 No1 Tabs


Song lyrics



↑ Back to top | Tablatures and chords are parodies/interpretations of the original songs. You may use it for private study, scholarship, research or language learning purposes only
© 2014 AZChords.com Contact us | Privacy policy | DMCA | Add/correct tabs | Request tabs | Top 50 tabs