» » »

Four Year Strong, Catastrophe Tabs (ver.1)

Artists:  A B C D E F G H I J K L M N O P Q R S T U V W X Y Z # 

Catastrophe Tabs (ver.1)

Four Year Strong Tabs
 Rating:
3.4/5 (10 votes)
Catastrophe lessons Tabs too difficult? Try these video lessons and learn fast
                
So this basically an all around amazing, punk/hardcore song by Four Year Strong. It's 
into Dan's part (Gtr. 1) and Alan's part (Gtr. 2). Some things might be wrong since I did 

Intro
Gtr. 2
d----------------------|
A--2---0~---2~----0~---|
F---2----2-----2----2--|
C----2----2~----2----2~|
G----------------------|
D----------------------|

Gtr. 1
--------------------------------------------|
--------------------------------------------|
---------------------------------4-44-7-777-|
-777/4-444--777/4-444--777/4-44--4-44-7-777-|
-777/4-444--777/4-444--777/4-44--2-22-5-555-|
-550/2-222--550/2-222--550/2-22-------------|

--------------------------------------------|
--------------------------------------------|
---------------------------------4-44-7-777-|
-777/4-444--777/4-444--444\7-77--4-44-7-777-|
-777/4-444--777/4-444--444\7-77--2-22-5-555-|
-550/2-222--550/2-222--222\5-55-------------|

Gtr. 2
------------------|-------------0~----|
-2--0~----2--0~---|-2--0~--2~-----0---|
--2---2----2---2--|--2---2----2-------|
---2---2~---2---2~|---2---2----2---2~-|
------------------|-------------------|
------------------|-------------------| x2

Verse
Gtr. 1 - You're always running around...
--------------------------------------------|
--------------------------------------------|
--------------------------------------------|
-7~~~~~~~~~~~~~~~~~-------------------------|
-7~~~~~~~~~~~~~~~~~-------------------------|
-5~~~~~~~~~~~~~~~~~-------------------------|

Gtr. 2 - But hold on, you've been running...
--------------------------------------------|
-2--0~--------------------------------------|
--2---2-------------------------------------|
---2---2~~~~~~~~~~--------------------------|
--------------------------------------------|
--------------------------------------------|

Pre-Chorus
Gtr. 1 - You've gotta build it up...
-------------------------------------------|
-------------------------------------------|
-----------4-44-7-777-----------4-44-7-777-|
-777/4-44--4-44-7-777-777/4-44--4-44-7-777-|
-777/4-44--2-22-5-555-777/4-44--2-22-5-555-|
-550/2-22-------------550/2-22-------------|

Gtr. 1 - You'll know what to do...
-------------------------------------------|
-------------------------------------------|
-----------4-44-7-777-----------4-44-7-777-|
-777/4-44--4-44-7-777-444\7-77--4-44-7-777-|
-777/4-44--2-22-5-555-444\7-77--2-22-5-555-|
-550/2-22-------------222\5-55-------------|

Gtr. 2 - You've gotta build it up.../You'll know what to do...
-------------------------------0~-----|
-2--0~----2--0~----2--0~--2~-----0----|
--2---2----2---2----2---2----2--------|
---2---2~---2---2~---2---2----2---2---|
--------------------------------------|
--------------------------------------| x2

Gtr. 1 & 2
--------------------|
--------------------|
--------------------|
-999-9-7-7-7-2~~--xx|
-999-9-7-7-7-2~~--xx|
-777-7-5-5-4-0~~--xx|

Chorus
Gtr. 1 - So save your breath...
--------------------------------------------|
--------------------------------------------|
---------------------------------4-44-7-777-|
-777/4-444--777/4-444--777/4-44--4-44-7-777-|
-777/4-444--777/4-444--777/4-44--2-22-5-555-|
-550/2-222--550/2-222--550/2-22-------------|

Gtr. 1 - In this heat you'll be sweating out...
--------------------------------------------|
--------------------------------------------|
---------------------------------4-44-7-777-|
-777/4-444--777/4-444--444/7-77--4-44-7-777-|
-777/4-444--777/4-444--444/7-77--2-22-5-555-|
-550/2-222--550/2-222--222/5-55-------------|

Gtr. 2 - So save your breath.../In this heat you'll be sweating out...
------------------|-------------0~----|
-2--0~----2--0~---|-2--0~--2~-----0---|
--2---2----2---2--|--2---2----2-------|
---2---2~---2---2~|---2---2----2---2~-|
------------------|-------------------|
------------------|-------------------| x2

Verse
Gtr. 1 - And I'm making a list...
--------------------------------------------|
--------------------------------------------|
--------------------------------------------|
-7~~~~~~~~~~~~~~~~~-------------------------|
-7~~~~~~~~~~~~~~~~~-------------------------|
-5~~~~~~~~~~~~~~~~~-------------------------|

Gtr. 2 - It's farther than the stretch of my attention span...
--------------------------------------------|
-2--0~--------------------------------------|
--2---2-------------------------------------|
---2---2~~~~~~~~~~--------------------------|
--------------------------------------------|
--------------------------------------------|

Pre-Chorus
Gtr. 1 - You've gotta build it up...
-------------------------------------------|
-------------------------------------------|
-----------4-44-7-777-----------4-44-7-777-|
-777/4-44--4-44-7-777-777/4-44--4-44-7-777-|
-777/4-44--2-22-5-555-777/4-44--2-22-5-555-|
-550/2-22-------------550/2-22-------------|

Gtr. 1 - You'll know what to do...
-------------------------------------------|
-------------------------------------------|
-----------4-44-7-777-----------4-44-7-777-|
-777/4-44--4-44-7-777-444\7-77--4-44-7-777-|
-777/4-44--2-22-5-555-444\7-77--2-22-5-555-|
-550/2-22-------------222\5-55-------------|

Gtr. 2 - You've gotta build it up.../You'll know what to do...
-------------------------------0~-----|
-2--0~----2--0~----2--0~--2~-----0----|
--2---2----2---2----2---2----2--------|
---2---2~---2---2~---2---2----2---2---|
--------------------------------------|
--------------------------------------| x2

Gtr. 1 & 2
----------------------|
----------------------|
----------------------|
-7~-7~-7~-7~-9-9-9-xx-|
-7~-7~-7~-7~-9-9-9-xx-|
-5~-5~-5~-5~-7-7-7-xx-|

Chorus
Gtr. 1 - So save your breath...
-------------------------------------------|
-------------------------------------------|
---------------------------------4-44-7-777|
-777/4-444--777/4-444--777/4-44--4-44-7-777|
-777/4-444--777/4-444--777/4-44--2-22-5-555|
-550/2-222--550/2-222--550/2-22------------|

Gtr. 1 - In this heat you'll be sweating out...
-------------------------------------------|
-------------------------------------------|
---------------------------------4-44-7-777|
-777/4-444--777/4-444--444/7-77--4-44-7-777|
-777/4-444--777/4-444--444/7-77--2-22-5-555|
-550/2-222--550/2-222--222/5-55------------|

Gtr. 2 - So save your breath.../In this heat you'll be sweating out...
------------------|-------------0~----|
-2--0~----2--0~---|-2--0~--2~-----0---|
--2---2----2---2--|--2---2----2-------|
---2---2~---2---2~|---2---2----2---2~-|
------------------|-------------------|
------------------|-------------------| x2

Breakdown
Gtr. 2 - So how about yourself...
---------------------------------------------------------------------------|
---------------------------------------------------------------------------|
---------------------------------------------------------------------------|
-77777799-44444444-77777799-44444444-77777799-44444444-77777799-4444-4-4-4-|
-77777799-44444444-77777799-44444444-77777799-44444444-77777799-4444-4-4-4-|
-55555577-22222222-55555577-22222222-55555577-22222222-55555577-2222-2-2-2-|
 xxxxxxxx xxxxxxxx xxxxxxxx xxxxxxxx xxxxxxxx xxxxxxxx xxxxxxxx xxxx

Gtr. 1 & 2 - Give me a reason...
---------------------------------------------------------------------------|
---------------------------------------------------------------------------|
-------------------------------------------------------4-44444-7-777777~~~-|
-77777799-44444444-77777799-44444444-7-x7-x7\9-4-44444-4-44444-7-777777~~~-|
-77777799-44444444-77777799-44444444-7-x7-x7\9-4-44444-2-22222-5-555555~~~-|
-55555577-22222222-55555577-22222222-5-x5-x5\7-2-22222---------------------|
 xxxxxxxx xxxxxxxx xxxxxxxx xxxxxxxx


Chorus
Gtr. 1 - So save your breath...
-------------------------------------------|
-------------------------------------------|
---------------------------------4-44-7-777|
-777/4-444--777/4-444--777/4-44--4-44-7-777|
-777/4-444--777/4-444--777/4-44--2-22-5-555|
-550/2-222--550/2-222--550/2-22------------|
                                               x2
Gtr. 1 - In this heat you'll be sweating out...
-------------------------------------------|
-------------------------------------------|
---------------------------------4-44-7-777|
-777/4-444--777/4-444--444/7-77--4-44-7-777|
-777/4-444--777/4-444--444/7-77--2-22-5-555|
-550/2-222--550/2-222--222/5-55------------|

Gtr. 2 - So save your breath.../In this heat you'll be sweating out...
------------------|-------------0~----|
-2--0~----2--0~---|-2--0~--2~-----0---|
--2---2----2---2--|--2---2----2-------|
---2---2~---2---2~|---2---2----2---2~-|
------------------|-------------------|
------------------|-------------------| x4

----------------|
-2--0~----------|
--2---2~~~------|
---2------------|
----------------|
----------------|

You're always running around
With everyone else but me
You're such a catastrophe
But hold on you've been running for oh-so long
And soon I'll be gone

You've gotta build it and then breakdown
Give it a taste and drop your jaw to the ground
Then you'll know what to do and we'll pick it up
Pick it up and give it right back to you

So save your breath and get down with me
I never thought it would be this easy
To spread you like a disease
In this heat you'll be sweating out your dignity
You'll always be such a catastrophe

And I'm making a list of all your so-called "big plans"
And I'm really having trouble 'cause
It's farther than the stretch of my attention span
Wait, what were we talking about again?

You've gotta build it and then breakdown
Give it a taste and drop your jaw to the ground
Then you'll know what to do and we'll pick it up
Pick it up and give it right back to you

So save your breath and get down with me
I never thought it would be this easy
To spread you like a disease
In this heat you'll be sweating out your dignity
You'll always be such a catastrophe

And how about yourself?
And do you have what it takes to raise the stakes
And show that you have it in you to just pick up, pick up
Give me a reason just to see things through
Until the end because I'm on to you
I'm gonna need a shovel to dig myself outta this one

So save your breath and get down with me
I never thought it would be this easy
To spread you like a disease
In this heat you'll be sweating out your dignity
You'll always be such a catastrophe

So save your breath and get down with me
I never thought it would be this easy
To spread you like a disease
In this heat you'll be sweating out your dignity
You'll always be such a catastrophe
            
Submit corrections

comments powered by Disqus
↑ Back to top | Four Year Strong Tabs for Catastrophe. Lyrics for acoustic guitar and electric guitar. Tablatures and chords are parodies/interpretations of the original songs. You may use it for private study, scholarship, research or language learning purposes only