» » »

Heroes Get Remembered, Legends Never Die Bass tabs (ver.1)

Artists:  A B C D E F G H I J K L M N O P Q R S T U V W X Y Z # 

Heroes Get Remembered, Legends Never Die Bass tabs (ver.1)

Four Year Strong
Rating:
0/5 (0 votes)

Hard to play? Try these video lessons and learn fast.
                Four Year Strong      
Bass Tab
Tuning - DADG

Easy song, Lots of open notes.


Optional Intro(0.12)
*  G|------------------------------------------------|  *
*  D|------------------------------------------------|  *
*  A|-----------97-------9h10p9----------75--5-75----|x2* 
*  D|-000000000----000-00-------000000000---0-0--7---|  *

Intro (0.12)  (*NOTE* - the amount of D's is predicted)
G|-----------------------------------------------|
D|-----------------------------------------------|
A|----------------------------------------5-75---|x2
D|-0000000000000000000000000000000000000-0-0--7--|

Verse (0.24)
G|--------------------------------------------------------------------|
D|--------------------------------------------------------------------|
A|---------------------910121097------------------------910121097-----|x2
D|00000-0-00---00000-00----------00000-00-0-0-0-00000-00--------------|

Pre-Chorus (0:47)
G|-------------------------------------------------------------|
D|-------------------------------------------------------------|
A|-------------------------------------------------------------|
D|24-55555555777777779999--9999-975555555577777772x4x5x7-7777--|

I Labelled the parts because it has an alternate ending.
Play it in this order (A,B,A,C)
Chorus (0.59) 
G|----------------------------|---------| |-------|
D|----------------------------|---------| |-------|
A|---5---5-----5---5----5---5-|--5-75---| |-/5----|
D|000--00----00--00---00--00--|-0-0--7--| |----7--|
         (Part A)                 (B)        (C)

*[Verse x2]

*[Pre-Chorus x1]

(Added new Part)
*Chorus (1:47)
G|----------------------------|---------|  |--------|
D|----------------------------|---------|  |--------|
A|---5---5-----5---5----5---5-|--5-75---|  |--------|
D|000--00----00--00---00--00--|-0-0--7--|  |-457542-|

         (Part A)                 (B)         (D)
THE ORDER : (A,B) x2   (A,D) x2

Interlude (2:10)
G|-------------|   |--------------------------|
D|-------------|   |--------------------------|
A|---55555555--|x1 |-5555555554444------------|x7
D|0~-----------|   |--------------00000000----|

BreakDown (CBF the timing)   
G|-------------------------------------------|
D|-------------------------------------------|
A|-------------------------------------------|x2
D|-000-00-00-0000-000-000-0000-00--0--0-000--|
^^^^That is not right^^^^ XD i was just lazy....

[Chorus]x2

Ending
G|-----------|
D|-----------|
A|---5--5/0--|
D|-00-00-----|

took me ages so,   ENJOY IT! :@
            
Hard to play? Try these video lessons and learn fast. | Correct




comments powered by Disqus
↑ Back to top | Tablatures and chords are parodies/interpretations of the original songs. You may use it for private study, scholarship, research or language learning purposes only