» » »

Four Year Strong, Tonight We Feel Alive (On A Saturday) Tabs (ver.1)

Artists:  A B C D E F G H I J K L M N O P Q R S T U V W X Y Z # 

Tonight We Feel Alive (On A Saturday) Tabs (ver.1)

Four Year Strong Tabs
 Rating:
4/5 (4 votes)
Tonight We Feel Alive (On A Saturday) lessons Tabs too difficult? Try these video lessons and learn fast
                Tonight we Feel Alive (on a saturday)


Lead Intro
d|-------------------------------------------------------------------|
a|-------------------------------------------------------------------|
f|-19-18-16-18-16-14------19-18-16-18-19-16--191919-181818-14-16-----|
c|-------------------------------------------------------------------|
g|-17-16-14-16-14-12------17-16-14-16-17-14--171717-161616-12-14-----|
d|-------------------------------------------------------------------|

Rhythm Intro
d|--------------------------------------------------xx-xxx-xxx------|
a|--------------------------------------------------xx-xxx-xxx------|
f|-4444-7777-----------7777-----------7777-------4--xx-xxx-xxx------|
c|-4444-7777-5555-7777-7777-7777-5555-7777-7777--4--xx-xxx-xxx------|
g|-2222-5555-5555-7777-5555-7777-5555-5555-7777--2--xx-xxx-xxx------|
d|-----------3333-5555------5555-3333------5555-----xx-xxx-xxx------|

Verse
d|----------------------------------------|
a|----------------------------------------|
f|----------------------------------------|
c|-9~---------5~---9---7------------------|
g|-9~---------5~---9---7------------------|
d|-7~---------3~---7---5------------------|

d|---------------------------------------------|
a|---------------------------------------------|
f|---------------------------------------------|
c|-2222-2222-5555-5555-9999-9999-7777-7777-----|
g|-2222-2222-5555-5555-9999-9999-7777-7777-----|
d|-0000-0000-3333-3333-7777-7777-5555-5555-----|
   .... .... .... .... .... .... .... ....

Prechorus
d|----------------------------|
a|----------------------------|
f|----------------------------|
c|--5------4-----5-----8------|
g|--5------5-----5-----9------|
d|--3------2-----3-----6------|

Chorus
d|--------------------------------------------------xx-xxx-xxx------|
a|--------------------------------------------------xx-xxx-xxx------|
f|-4444-7777-----------7777-----------7777-------4--xx-xxx-xxx------|
c|-4444-7777-5555-7777-7777-7777-5555-7777-7777--4--xx-xxx-xxx------|
g|-2222-5555-5555-7777-5555-7777-5555-5555-7777--2--xx-xxx-xxx------|
d|-----------3333-5555------5555-3333------5555-----xx-xxx-xxx------|

repeat intro
repeat verse
repeat prechorus
repeat chorus

bridge
d|---------|---10-9----9-------10-9----9-10----10-9---------|
a|---------|--------12---12-10------12------12------10-12---|
f|---------|------------------------------------------------|
c|---------|------------------------------------------------|
g|--7*-----|------------------------------------------------|
d|---------|------------------------------------------------|

Repeat pre chorus
repeat chorus
repeat intro
            
Submit corrections

comments powered by Disqus
↑ Back to top | Four Year Strong Tabs for Tonight We Feel Alive (On A Saturday). Lyrics for acoustic guitar and electric guitar. Tablatures and chords are parodies/interpretations of the original songs. You may use it for private study, scholarship, research or language learning purposes only