» » »

Four Year Strong, Catastrophe Tabs (ver.2)

Artists:  A B C D E F G H I J K L M N O P Q R S T U V W X Y Z # 

Catastrophe Tabs (ver.2)

Four Year Strong Tabs
 Rating:
4.3/5 (6 votes)
Catastrophe lessons Tabs too difficult? Try these video lessons and learn fast
                tuning dropped d
im 80 percent this is correct

intro
e-----------------|
b--o--------------|
g----o---2---0----|   x2
d------o----------|
a-----------------|
d-----------------|

e------------------------------------------------------------------|
b------------------------------------------------------------------|
g------------------------------------------------------------------|
d--5-5-0-2-2-2-2--5-5-0-2-2-0-0--5-5-0-2-2-2-2-7-7-7-7-12-12-12-12-|
a--5-5-0-2-2-2-2--5-5-0-2-2-0-0--5-5-0-2-2-2-2-7-7-7-7-12-12-12-12-|
d--5-5-0-2-2-2-2--5-5-0-2-2-0-0--5-5-0-2-2-2-2-7-7-7-7-12-12-12-12-|

e-----------------------------------------------------------------------------|
b-----------------------------------------------------------------------------|
g-----------------------------------------------------------------------------|
d-5-5-0-2-2-2-2--5-5-0-2-2-0-0-2-2-5-5-5-7-7-7-12-12-12-5>--------------------|
a-5-5-0-2-2-2-2--5-5-0-2-2-0-0-2-2-5-5-5-7-7-7-12-12-12-5>--------------------|
d-5-5-0-2-2-2-2--5-5-0-2-2-0-0-2-2-5-5-5-7-7-7-12-12-12-5>--------------------|

e--------------|
b--0-----------|
g----0---2---0-|
d------0-------|
a--------------|
d--------------|

then it goes to this

e------|
b------|
g--12--|
d--10--|
a--10--|
d------|


then

e----------------|
b----------------|
g----------------|
d-9-9-7-7-0-0>---|
a-9-9-7-7-0-0>---|
d-9-9-7-7-0-0>---|


then again

e------------------------------------------------------------------|
b------------------------------------------------------------------|
g------------------------------------------------------------------|
d--5-5-0-2-2-2-2--5-5-0-2-2-0-0--5-5-0-2-2-2-2-7-7-7-7-12-12-12-12-|
a--5-5-0-2-2-2-2--5-5-0-2-2-0-0--5-5-0-2-2-2-2-7-7-7-7-12-12-12-12-|
d--5-5-0-2-2-2-2--5-5-0-2-2-0-0--5-5-0-2-2-2-2-7-7-7-7-12-12-12-12-|

e----------------------------------------------------------------------------|
b----------------------------------------------------------------------------|
g----------------------------------------------------------------------------|
d-5-5-0-2-2-2-2--5-5-0-2-2-0-0-2-2-5-5-5-7-7-7-12-12-12-5--------------------|
a-5-5-0-2-2-2-2--5-5-0-2-2-0-0-2-2-5-5-5-7-7-7-12-12-12-5--------------------|
d-5-5-0-2-2-2-2--5-5-0-2-2-0-0-2-2-5-5-5-7-7-7-12-12-12-5--------------------|


e--------------|
b--0-----------|
g----0---2---0-|
d------0-------|
a--------------|
d--------------|

then it goes to this again

e------|
b------|
g--12--|
d--10--|
a--10--|
d------|


e------------------|
b------------------|
g------------------|
d--9-9-9-----------|
a--9-9-9-----------|
d--9-9-9-----------|

e------------------------------------------------------------------|
b------------------------------------------------------------------|
g------------------------------------------------------------------|
d--5-5-0-2-2-2-2--5-5-0-2-2-0-0--5-5-0-2-2-2-2-7-7-7-7-12-12-12-12-|
a--5-5-0-2-2-2-2--5-5-0-2-2-0-0--5-5-0-2-2-2-2-7-7-7-7-12-12-12-12-|
d--5-5-0-2-2-2-2--5-5-0-2-2-0-0--5-5-0-2-2-2-2-7-7-7-7-12-12-12-12-|

e----------------------------------------------------------------------------|
b----------------------------------------------------------------------------|
g----------------------------------------------------------------------------|
d-5-5-0-2-2-2-2--5-5-0-2-2-0-0-2-2-5-5-5-7-7-7-12-12-12-5--------------------|
a-5-5-0-2-2-2-2--5-5-0-2-2-0-0-2-2-5-5-5-7-7-7-12-12-12-5--------------------|
d-5-5-0-2-2-2-2--5-5-0-2-2-0-0-2-2-5-5-5-7-7-7-12-12-12-5--------------------|

bridge/breakdown thinging

????
you find out the rest i did half of it for you
:)
            
Submit corrections

comments powered by Disqus
↑ Back to top | Four Year Strong Tabs for Catastrophe. Lyrics for acoustic guitar and electric guitar. Tablatures and chords are parodies/interpretations of the original songs. You may use it for private study, scholarship, research or language learning purposes only