» » »

She Doesn't Get It Tabs (ver.1)

Artists:  A B C D E F G H I J K L M N O P Q R S T U V W X Y Z # 

She Doesn't Get It Tabs (ver.1)

Format
Rating:
0/5 (0 votes)

Tabs too difficult? Try these video lessons and learn fast.
                Song Title: She Doesn't Get It

decided that I'd tab it out myself.  It sounds pretty near 100% correct, so enjoy!

Tuning: Standard (EADGBE), Capo 4

Intro
e|----------------------------------|
B|----------------------------------|
G|------0------0------0-------0-----| x2
D|----0--0---0--0---0---0---0---0---|
A|--3------2------0-------2---------|
E|----------------------------------|

Verse 1 (All the girls post the same 4 pictures…)
e|------------------------|
B|------------------------|
G|--0----0----0----0------| x4
D|--0-x4-0-x4-0-x4-0-x4---|
A|--3----2----0----2------|
E|------------------------|

Pre Chorus (But you talk so loud…)
e|--3~--3--3--2~----3--3--2~----3-3--2-2~---|
B|--3~--3--3--3~----3--3--3~----3-3--3-3~---|
G|--0~--0--0--2~----0--0--2~----0-0--2-2~---| x1
D|--2~--2--0--0~----2--0--0~----2-2--0-0~---|
A|--3~--3--2--0~----3--2--0~----3-3--0-0~---|
E|------------------------------------------|

Chorus (She says she’s leaving on a Sunday…)
Listen for strumming (On first Am Chord, listen for changes on D string)
e|--3---0---3---3---0---2---|
B|--3---1---3---3---1---3---|
G|--0---2---0---0---2---2---| x2
D|--0---2---2---0---2---0---|
A|--2---0---3---2---0---0---|
E|--3-----------------------|

Interlude
Listen for strumming
e|--3--3--3--3---|
B|--3--3--3--3---|
G|--0--0--0--0---| x2
D|--2--0--0--0---|
A|--3--2--0--2---|
E|---------------|

Verse 2 (I’ve read every word you’ve said…)
Listen for strumming…different than first verse
e|------------------------|
B|------------------------|
G|--0----0----0----0------| x1
D|--0-x3-0-x2-0-x3-0-x2---|
A|--3----2----0----2------|
E|------------------------|

Verse 2 Cont. (From a poster of a cab…)
e|-------------------------|
B|-------------------------|
G|--0----0----0------------| x1
D|--0-x3-0-x2-0-x3---------|
A|--3----2----2------0-2---|
E|------------3----3-------|

Verse 2 Cont. (Four books, look across your sofa…)
e|------------------------|
B|------------------------|
G|--0----0----0----0------| x1
D|--0-x3-0-x2-0-x3-0-x2---|
A|--3----2----0----2------|
E|------------------------|

Verse 2 Cont. (I thought your coffee table…)
e|-------------------------|
B|-------------------------|
G|--0----0-----------------| x1
D|--0-x3-0-x2--0~----------|
A|--3----2-----------0-2---|
E|-----------------3-------|

Verse 3 (It gets worse once we get to her room…)
Listen for strumming
e|--3--3--3--3---|
B|--3--3--3--3---|
G|--0--0--0--0---| x4
D|--2--0--0--0---|
A|--3--2--0--2---|
E|---------------|

Pre Chorus (And you lock your door…)
e|--3~--3--3--2~----3--3--2~----3-3--2-2~---|
B|--3~--3--3--3~----3--3--3~----3-3--3-3~---|
G|--0~--0--0--2~----0--0--2~----0-0--2-2~---| x1
D|--2~--2--0--0~----2--0--0~----2-2--0-0~---|
A|--3~--3--2--0~----3--2--0~----3-3--0-0~---|
E|------------------------------------------|

Chorus (She says she’s leaving on a Sunday…)
Listen for strumming (On first Am Chord, listen for changes on D string)
e|--3---0---3---3---0---2---|
B|--3---1---3---3---1---3---|
G|--0---2---0---0---2---2---| x2
D|--0---2---2---0---2---0---|
A|--2---0---3---2---0---0---|
E|--3-----------------------|

Bridge
Listen for strumming (Changes on D string also)
e|--0---0---|
B|--0---1---|
G|--0---0---| x2
D|--2---2---|
A|--2---3---|
E|--0-------|

Bridge Cont. (Suddenly, between sheets and eyelids…)
Listen for strumming (Changes on D string also)
e|--0---0---|
B|--0---1---|
G|--0---0---| x3
D|--2---2---|
A|--2---3---|
E|--0-------|

Bridge Cont. (When I’m gone…)
e|--0---0---2---|
B|--0---1---3---|
G|--0---0---2---| x1
D|--2---2---0---|
A|--2---3---0---|
E|--0-----------|

Chorus (She says she’s leaving on a Sunday…)
e|--3~--0~--3~--3~--0~--2~---|
B|--3~--1~--3~--3~--1~--3~---|
G|--0~--2~--0~--0~--2~--2~---| x1
D|--0~--2~--2~--0~--2~--0~---|
A|--2~--0~--3~--2~--0~--0~---|
E|--3~-----------------------|

Chorus (She says she’s leaving on a Sunday…)
Listen for strumming (On first Am Chord, listen for changes on D string)
e|--3---0---3---3---0---2---|
B|--3---1---3---3---1---3---|
G|--0---2---0---0---2---2---| x2
D|--0---2---2---0---2---0---|
A|--2---0---3---2---0---0---|
E|--3-----------------------|

Outro (I was the only one that got burned…)
e|----------------------------------|
B|----------------------------------|
G|------0------0------0-------0-----| x3
D|----0--0---0--0---0---0---0---0---|
A|--3------2------0-------2---------|
E|----------------------------------|

Outro Cont.
e|-----------------------------|
B|------------------------3~---|
G|------0------0----------0~---| x1
D|----0--0---0--0--end on…0~---|
A|--3------2--------------3~---|
E|-----------------------------|
            
Tabs too difficult? Try these video lessons and learn fast.




comments powered by Disqus
↑ Back to top | Tablatures and chords are parodies/interpretations of the original songs. You may use it for private study, scholarship, research or language learning purposes only