>
 >
She Doesn't Get It 1

She Doesn't Get It 1 Guitar Tabs

Format - She Doesn't Get It 1 chords, tabs, tablatures, lyrics

Guitar lessons | Add/correct | Request | Top 50 tabs Artists:  A B C D E F G H I J K L M N O P Q R S T U V W X Y Z 0-9

She Doesn't Get It 1 Guitar Tabs – Format

CD, Sheet music, Poster

Do you like She Doesn't Get It 1? Share with your friends now
Bass TabsChordsChords v2Chords v3TabsTabs v2
-------------------------------------------------------------------------------
                        SHE DOESN'T GET IT - The Format
-------------------------------------------------------------------------------

Tuning: standard-capo 4(live acoustic)/standard-capo 5(recording)

all tab relative to capo

in the recording there is a seperate guitar playing a few riffs,
i tabbed one of them.
it occurs during the intro-like parts 
at every other part that guitar would be playing the same thing.
the riff is included at the end.

Intro:
e|--------------------------------------------|
B|--------------------------------------------|
G|-----0----0----0----0----0----0----0----0---|
D|----0-0--0-0--0-0--0-0--0-0--0-0--0-0--0-0--|
A|---3----2----0----2----3----2----0----2-----|
E|--------------------------------------------|
                                            
Verse 1:
e|-----------------------------|
B|-----------------------------|
G|---0000--0000--0000--0000----|
D|---0000--0000--0000--0000----|
A|---3333--2222--0000--2222----|
E|-----------------------------|
      

Pre-Chorus:
e|--0~-000--0-0-2--222--0-0-2--222---00--22----------------------------------|
B|--1~-111--1-1-3--333--1-1-3--333---11--33----------------------------------|
G|--0~-000--0-2-2--222--0-2-2--222---22--22----------------------------------|
D|--2~-222--2-2-0--000--2-2-0--000---22--00----------------------------------|
A|--3~-333--3-0---------3-0----------00--------------------------------------|
E|---------------------------------------------------------------------------|
       ^ ^         ^ ^         ^ ^
Chorus:
e|---333-33333333--00-0000-00-000--|--0000000--3333333--0000000--2222222-----|
B|---000-00000000--11-1111-11-111--|--1111111--0000000--1111111--3333333-----|
G|---000-00000000--22-2222-22-222--|--0000000--0000000--2222222--2222222-----|
D|---000-00000000--22-0202-02-020--|--2222222--0000000--2222222--0000000-----|
A|---222-22222222--00-0000-00-000--|--3333333--2222222--0000000--------------|
E|---333-33333333------------------|-----------3333333-----------------------|
          ^^ ^^ ^      ^ ^  ^  ^                                          

just before this they play something like verse one really quick,
while playing the riff at the bottom.

Verse 2:
e|----------------------------------------|----------------------------------|
B|----------------------------------------|----------------------------------|
G|----------------------------------------|---0-00-0-00-0-00-0-0000----------|
D|------------------------------0---------|---0-00-0-00-0-00-0-0000----------|
A|---333--22-0------0-2-333--22-------0-2-|---3-33-2-22-0-00-2-2222----------|
E|-------------33-3--------------33-3-----|----------------------------------|
                                       

Bridge:
e|--00-000-000-00000-00-000-000-00-0-|--00-000-000-00000--0-0-0000--2-2-2222-|
B|--00-000-000-00000-11-111-111-11-1-|--00-000-000-00000--1-1-1111--3-3-3333-|
G|--00-000-000-00000-00-000-000-00-0-|--00-000-000-00000--2-2-2222--2-2-2222-|
D|--22-222-222-22222-22-222-222-22-0-|--22-222-222-22222--2-2-2222--0-0-0000-|
A|--22-222-222-22222-33-333-333-33-2-|--22-222-222-22222--0-0-0000-----------|
E|--00-000-000-00000-----------------|--00-000-000-00000---------------------|
     ^ ^ ^ ^ ^ ^ ^ ^  ^ ^ ^ ^ ^ ^        ^ ^ ^ ^ ^ ^ ^ ^       ^ ^       ^ ^
This time you play the chorus, you strum the chords once each the first time around.

Outro:
e|---------------------------------------------------------------------------|
B|---------------------------------1~----------------------------------------|
G|----0----0----0----0----0----0---0~----------------------------------------|
D|---0-0--0-0--0-0--0-0--0-0--0-0--2~----------------------------------------|
A|--3----2----0----2----3----2-----3~----------------------------------------|
E|---------------------------------------------------------------------------|


Riff from recording:
e|---5-7-5---5----------5-5------5-7-5---5-----------------------------------|
B|---------8---8-5-8-8------8-5--------8---8-5-----8-8-5---------------------|
G|---------------------------------------------7-7-------7-------------------|
D|---------------------------------------------------------------------------|
A|---------------------------------------------------------------------------|
E|---------------------------------------------------------------------------|


| ^  upstroke
| /  slide up
| \  slide down
| h  hammer-on
| p  pull-off
| ~  vibrato
| +  harmonic
| x  Mute note
===============================================================================





Comments


Popular Format tabs & chords
Does Your Cat Have A Mustache Chords
Faith In Fast Cars Chords
First Single 1 Chords
Give It Up 2 Chords
Janet Chords
Pick Me Up 2 Chords
Threes Chords
Tie The Rope Tabs
Im Only Sleeping Ukulele
Wait Wait Wait Ukulele


Song lyrics



↑ Back to top | Tablatures and chords are parodies/interpretations of the original songs. You may use it for private study, scholarship, research or language learning purposes only
© 2014 AZChords.com Contact us | Privacy policy | DMCA | Add/correct tabs | Request tabs | Top 50 tabs