» » »

Format, She Doesn't Get It Bass tabs (ver.1)

Artists:  A B C D E F G H I J K L M N O P Q R S T U V W X Y Z # 

She Doesn't Get It Bass tabs (ver.1)

Format Tabs
Rating:
0/5 (0 votes)
She Doesn't Get It lessons Tabs too difficult? Try these video lessons and learn fast
                Tuning: Standard

Positive this is near 100%. Great Song.
Didn't really set up the timing so just listen for it. 
Bassist uses a pick on this song fingers sound fine though.

Also a lot of subtle hard to hear changes throughout the song so
look at each verse /chorus.

Intro:
G|-----------------------------------------------------|
D|-----------------------------------------------------|
A|-8---8-7---7---------7---7-8---8-7---7---------------|
E|-------------10---10-------------------10---10-8---8-|

Verse 1: 
G|-------------------------------------------------------------------|
D|-------------------------------------------------------------------|
A|-8-8-8-8-7-7-7-7----------7-7-7-7-8-8-8-8-7-7-7-7------------------|
E|-----------------10101010-------------------------10101010-8-8-8-8-|
 
G|-------------------------------------------------------------------|
D|-------------------------------------------------------------------|
A|-8-8-8-8-7-7-7-7----------7-7-7-7-8-8-8-8-7-7-7-7------------------|
E|-----------------10101010-------------------------10101010-8-8-8-8-|

* marked notes are just following the keyboard.
G|-----------------------------------------------------|
D|-------*--*--*------------*--*--*--------------------|
A|-8-----8--7--5------------8--7--5--------------------|
E|---------------------------------------------1-1-3-3-|

Chorus 1:
^ all notes marked like this are not actually played drum crash instead.
G|---------------------------------------------------------|
D|---------------------------------------------------------|
A|-^-------------------------------------------------------|
E|-8--8--8--8--8--8--8--8--10--10--10--10--10--10--10--10--| 

for this rift listen for spacing between each of the sections its not continuous.
G|----------------------------------------------------|
D|----------------------------------------------------|
A|-88888888---------------------------1010101010101010|
E|----------88888888-1010101010101010-----------------|

G|---------------------------------------------------------|
D|---------------------------------------------------------|
A|-^------------------------------------------------10--12-|
E|-8--8--8--8--8--8--8--8--10--10--10--10--10-10h12--------| 

G|----------------------------------------------------|
D|----------------------------------------------------|
A|-88888888---------------------------1010101010101010|
E|----------88888888-1010101010101010-----------------|

Interlude:
G|--------------------------------------------------------|
D|--------------------------------------------------------|
A|-8---8-7---7---------7---7-8---8-7---7----------------7-|
E|-------------10---10-------------------10---10-8-8-10---|

G|------------------------------------------------|
D|------------------------------------------------|
A|--8-8-8--7-7--------------7-8-8-8--7-7-10-------|
E|-------------10-8-8--8-10-----------------8-8---|
* marked notes here follow one of the guitars at an octave higher.
G|---------------------------------------------------------|
D|-------------------------------------------------*--*--*-|
A|------7-8-8-8--7-7--------------7-8-8-8--7-7-10~-10-12-10|
E|-8-10--------------10-8-8--8-10--------------------------|

Verse 2:
G|-------------------------------------------------------------------|
D|-------------------------------------------------------------------|
A|-8-8-8-8-7-7-7-7----------7-7-7-7-8-8-8-8-7-7-7-7------------------|
E|-----------------10101010-------------------------10101010-8-8-8-8-|
 
G|--------------------------------------------------------------------|
D|--------------------------------------------------------------------|
A|-8-8-8-8-7-7-7-7----------7-7----7-8-8-8-8-7-7-7-7------------------|
E|-----------------10101010-----10-------------------10101010-8-8-8-8-|

* marked notes are just following the keyboard.
G|-----------------------------------------------------|
D|-------*--*--*------------*--*--*--------------------|
A|-8-----8--7--5------------8--7--5--------------------|
E|---------------------------------------------1-1-3-3-|

Chorus 2:
G|---------------------------------------------------------|
D|---------------------------------------------------------|
A|-^-------------------------------------------------------|
E|-8--8--8--8--8--8--8--8--10--10--10--10--10--10--10--10--| 

G|----------------------------------------------------|
D|----------------------------------------------------|
A|-88888888---------------------------1010101010101010|
E|----------88888888-1010101010101010-----------------|

G|----------------------------------------------------------------|
D|----------------------------------------------------------------|
A|-^--------10-----------10--7-----------------------------10--12-|
E|-8--8--8------8--8h10---------10--12--10--10--10--10/12---------|

G|----------------------------------------------------|
D|----------------------------------------------------|
A|-88888888---------------------------1010101010101010|
E|----------88888888-1010101010101010-----------------|

G|----------------------------------|
D|----------------------------------|
A|------------------1010101010101010|
E|-1010101010101010-----------------|

Bridge:
Doesnt exactly follow the guitar. listen and you'll get the timing.
G|-------------------------------------------------------------|
D|-------------------------------------------------------------| 
A|-------------------------------------------------------------|
E|-5-5--3-5-5p3-3-5-5--3-5-5-3-3--1-1-1-1-3-1--1--1-3-1-3-3-1/-|

G|-------------------------------------------------------------|
D|-------------------------------------------------------------| 
A|-------------------------------------------------------------|
E|-5-5--3-5-5p3-3-5-5--3-5-5-3-3--1-1-1-1-3-1--1--1-3-1-3-3-1/-|

G|-------------------------------------------------------------|
D|-------------------------------------------------------------| 
A|-------------------------------------------------------------|
E|-5-5--3-5-3---3-5-5--3-5-5-3-3--1-1-1-1-3-1--1--1-3-1-3---1/-|

G|-------------------------------------------------------------|
D|-------------------------------------------------------------| 
A|---------------------------------------------------7---------|
E|-5-5--3-5-5---3-5-5--3-5-5-3-3---1--1--1--1--3--5-----7b--8--|

Bass cuts out until 2:57
Chorus 3:
G|---------------------------------------------------------|
D|---------------------------------------------------------|
A|---------------------------------------------------------|
E|-8--8--8--8--8--8--8--8--10--10--10--10--10--10--10--10--| 

G|------------------------------------------------------|
D|------------------------------------------------------|
A|-88888888-----------------------------1010101010101010|
E|----------888888910-1010101010101010------------------|

G|----------------------------------------------------------------|
D|----------------------------------------------------------------|
A|----------10-----------10--7-----------------------------10--12-|
E|-8--8--8------8--8h10---------10--12--10--10--10--10h12---------|

G|----------------------------------------------------|
D|----------------------------------------------------|
A|-88888888---------------------------1010101010101010|
E|----------88888888-1010101010101010-----------------|

G|----------------------------------|
D|----------------------------------|
A|------------------1010101010101010|
E|-1010101010101010-----------------|

Outro:
G|--------------------------------------------------------|
D|--------------------------------------------------------|
A|-8---8-7---7---------7---7-8---8-7---7----------------7-|
E|-------------10---10-------------------10---10-8-8-10---|

G|----------------------------------------------------------|
D|----------------------------------------------------------|
A|-8---8-7---7---------7---7-8---8-7---7/-17-17----17--15~--|
E|-------------10---10--------------------------------------|
            
Submit corrections

comments powered by Disqus
↑ Back to top | Format Bass for She Doesn't Get It. Lyrics for acoustic guitar and electric guitar. Tablatures and chords are parodies/interpretations of the original songs. You may use it for private study, scholarship, research or language learning purposes only