>
 >
Snails

Snails Guitar Tabs

Format - Snails chords, tabs, tablatures, lyrics

Guitar lessons | Add/correct | Request | Top 50 tabs Artists:  A B C D E F G H I J K L M N O P Q R S T U V W X Y Z 0-9

Snails Guitar Tabs – Format

CD, Sheet music, Poster

Do you like Snails? Share with your friends now
ChordsTabsTabs v2Tabs v3Ukulele

Tuning: half step down(live)/standard-capo 2(recording)

If you want to know where each part goes, watch a video of them playing this live here:


Intro:UPDATED TOO!
e|---------------------------------------------------------------------------|
B|----3------3-------2---2---2--------3-----3------2---2--2------------------|
G|----2--2---2--2----2---2---2--------2-----0------2---2--2------------------|
D|--0-----0------0------------------0----0-----0----------4------------------|
A|------0---4--0------------------------4-2---0-----------4------------------|
E|-----------------2---5---2---0-----------------2---5----2------------------|

Verse: the first time after the intro, try to play it a little more like the
	new intro, and then play this afterward.
e|-----------------3--------------|----------------3-------------------------|
B|----3-----3------3---3----------|---3-----3------3---3---------------------|
G|----2-----0------0---0----------|---2-----0------0---0---------------------|
D|--0----0-----0------------------|-0----0-----0-----------------------------|
A|------4-2---0-------------0-2-4-|-----4-2---0-------------4-2-0------------|
E|---------------3---2---0--------|--------------3---2---0-------------------|
                                       

Pre-Chorus:
e|-|-----------------|-------------------|-|------6----5---------------------|
B|-|---3---3---3---5-|----3--------------|-|------6----5---------------------|
G|-|---4---4---4---6-|----2--2-----------|-|------7----6---(twice next time)-|
D|-|-----------------|--0-----0-0--4-2-0-|-|------6----5---------------------|
A|-|-2---------------|------0------------|-|------8----7---------------------|
E|-|-----2---3---5---|-------------------|-|------6----5---------------------|
   < repeat there    >-------------------< > ^mess around with these chords^

UPDATE: for the prechorus, the last two chords are now different.
        it seems Sam plays those chords, and uses a pull off at one point
        on the B string with his pinky, two frets up from the barring finger.

Chorus:
e|---------------------------------------------------------------------------|
B|--------3--3---3--3---3--3---3--3---3--3---3--3---3--3---------------------|
G|--------2--2---2--2---0--0---0--0---0--0---0--0---0--0---------------------|
D|-------0--0----------------------------------------------------------------|
A|-0-2-4--------4--4---2--2---0--0------------------------0--0-2-4-----------|
E|-----------------------------------3--3---2--2---0--0----------------------|

Outro:
e|------------------3-------2------------------------------------------------|
B|----3-----3-------3---3---3------------------------------------------------|
G|----2-----0-------0---0---2------------------------------------------------|
D|--0----0-----0------------0------------------------------------------------|
A|------4-2---0-------0------------------------------------------------------|
E|----------------3----------------------------------------------------------|
                             


NOW.
it has come to my attention that my chorus has had some problems
i'll leave that way to play it there, in case you prefer it, 
but i believe this may be the way Sam plays it,
but im not positive about all the notes on the high e string.
some of them, like with the G and D chords, i am sure about though.

UPDATED AGAIN!-damn tricky songs. haha.
              -this update is much harder, if you want, you can 
               simply play the other version, or mix them together.
              -( )- this is for optional notes.
	      -new update, where some of the early notes are like the
               new notes in the intro.
Chorus(ver2):
e|-------(2)-----------------------3-----3---------------|
B|--------3------3-----3-----3-----3-----3-----3---(2)---|
G|--------2--2---2-----0-----0-----0-----0-----0----2----|
D|-------0----0-----0-----0-----0-----0-----0-----0-2----|
A|-0-2-4----0---4--4--2--2--0--0--------------2--2--0----|
E|--------------------------------3--3--2--2-------------|

----------------------------------------------------------------
_-_-_-_-_-_-_-_-_-_-_-_-_NEW UPDATE!!_-_-_-_-_-_-_-_-_-_-_-_-_-_
----------------------------------------------------------------

So..basically what is above is what I used to play,
I've gotten requests for this other version, so here it is.
Also, note that i use generally my thumb and index only, though it's  not required.
It is, however, how same plays it.

Intro:
e|----2--------------2----------------2--------------2-------------------------|
B|-------3---3-----------2---2-----------3---3-----------2--2------------------|
G|----2--------------2----------------2--------------2------2------------------|
D|--0-----0--0---0-------2---2------0-----0--0---0-------2--2------------------|
A|------0---4--0----------------0-------0---4--0------------4------------------|
E|-----------------2---5---2---0-------------------2---5----2------------------|

Verse: 
e|---2-----------3--3----------|---------|
B|------3--3--3----------------|---------|
G|---2-----------0--0----------|---------|
D|--0---0--0--0----------------|---------|
A|-----4--2--0-----------0-2-4-|--4-2-0--|
E|--------------3--2--0--------|---------|
                        

Pre-Chorus:
e|-|-----------------|----2--------------|-|------6----5---------------------|
B|-|---3---3---3---5-|-------3-----------|-|------6----5---------------------|
G|-|-----------------|----2--------------|-|------7----6---(twice next time)-|
D|-|---4---4---4---6-|--0-----0-0--4-2-0-|-|------6----5---------------------|
A|-|-2---------------|------0------------|-|------8----7---------------------|
E|-|-----2---3---5---|-------------------|-|------6----5---------------------|
   < repeat there    >-------------------< > ^mess around with these chords^

____________________________________________________________________________

NOTE: for the Pre-Chorus, the last two chords are now different.
      it seems Sam plays those chords, and uses a pull off at one point
      on the B string with his pinky, two frets up from the barring finger.
      it looks something like this(it might be a little complicated, but it's
      just what i play, so don't worry about it being exact):
e|---6----------6----|--5----------------------------------------------------|
B|------6--8p6---6-6-|-----5--7~---------------------------------------------|
G|---7------------7--|--6-----6~---------------------------------------------|
D|-------6-6---------|------5-5~---------------------------------------------|
A|-------------------|--------7~---------------------------------------------|
E|--6--6-------6-----|-5--5---5~---------------------------------------------|
                   
_____________________________________________________________________________    

Chorus:
e|--------2---------------------------3--------3----0------------------|
B|-----------3---3--3---3--3---3--3------3---3--3--3---3---2-----------|
G|--------2---------------------------0-------------------(2)----------|
D|-------0----0--0---0--0---0--0---0------0---0---------0-(2)----------|
A|-0-2-4----0---4--4---2--2---0--0-----------------2--2----0--0-2-4----|
E|-----------------------------------3--3---2--------------------------|
							 |--0-----|
							 |-2---2--|
		This happens at the end of each chorus>	 |--------|
							 |------2-|
							 |-0--0---|
							 |--------|

Outro:
e|----2-----------3------2~--|
B|-------3--3--3---------3~--|
G|----2-----------0------2~--|
D|--0----0--0--0-------0-0~--|
A|------4--2--0-----0h2------|
E|---------------3-----------|
                         



| /  slide up
| \  slide down
| h  hammer-on
| p  pull-off
| ~  vibrato
| +  harmonic
| x  Mute note
===============================================================================





Comments


Popular Format tabs & chords
Does Your Cat Have A Mustache Chords
She Doesn't Get It 1 Chords
Snails Chords
The Compromise 2 Chords
Matches Tabs
Oceans Tabs
Career Day Ukulele
Inches And Falling Ukulele
Oceans Ukulele
Piano Song Ukulele


Song lyrics



↑ Back to top | Tablatures and chords are parodies/interpretations of the original songs. You may use it for private study, scholarship, research or language learning purposes only
© 2014 AZChords.com Contact us | Privacy policy | DMCA | Add/correct tabs | Request tabs | Top 50 tabs