» » »

Red Socks Pugie Tabs (ver.2)

Artists:  A B C D E F G H I J K L M N O P Q R S T U V W X Y Z # 

Red Socks Pugie Tabs (ver.2)

Foals
Rating:
3/5 (3 votes)

Hard to play? Try these video lessons and learn fast.
                (Intro)
this is my very first tab so it probably isnt correct but i was fed up with this song 
bein tabbed so i worked it out the best i could

this is only the intro im afraid

the guitar has an delay/echo effect

e |-17-------|----------|-15-------|-12-------|
B |-18-------|----------|-13-------|-13-------|
G |-17-------|----------|-14-------|-14-------|
D |----------|----------|----------|----------|
A |----------|----------|----------|----------|
E |----------|----------|----------|----------|

  |-17-------|-15-------|-12-------|----------|
  |-18-------|----------|----------|----------|
  |-17-------|----------|----------|----------|
  |----------|----------|----------|----------|
  |----------|----------|----------|----------|
  |----------|----------|----------|----------|


goo luck i hope you enjoy the song as much as i do!
            
Hard to play? Try these video lessons and learn fast. | Correct




comments powered by Disqus
↑ Back to top | Tablatures and chords are parodies/interpretations of the original songs. You may use it for private study, scholarship, research or language learning purposes only