» » »

Foals, Red Socks Pugie Tabs (ver.1)

Artists:  A B C D E F G H I J K L M N O P Q R S T U V W X Y Z # 

Red Socks Pugie Tabs (ver.1)

Foals Tabs
 Rating:
4.3/5 (6 votes)
Red Socks Pugie lessons Tabs too difficult? Try these video lessons and learn fast
1
                -------------------------------------------------------------------------------
-------------------------------------------------------------------------------

Tuning: Standard

Intro:
e|--17------12--15---17----15-15-15--s12~------------------------------------|
B|--x-------x---x----x-------------------------------------------------------|
G|--x-------x---x----x-------------------------------------------------------|
D|--15------10--14---15------------------------------------------------------|
A|--17------12--15---17------------------------------------------------------|
E|---------------------------------------------------------------------------|

Verse: Repeat as necessary
e|--17----12--15---17--------------17----12--15----15------------------------|
B|--x-----x----x---x---------------x-----x----x----x-------------------------|
G|--x-----x----x---x---------------x-----x----x----12------------------------|
D|--15----10--14---15--------------15----10---14---14------------------------|
A|--17----12--15---17--------------17----17---15-----------------------------|
E|---------------------------------------------------------------------------|

Prechorus:Palm Mute/ Chorus:
e|---------------------------------------------------------------------------|
B|---------------------------------------------------------------------------|
G|---------------------------------------------------------------------------|
D|--14-14-14-17-17-17-14-14-14-17-17-17-14-----------------------------------|x2
A|-----------------------------------------17-15-----------------------------|
E|---------------------------------------------------------------------------|

e|---------------------------------------------------------------------------|
B|---------------------------------------------------------------------------|
G|---------------------------------------------------------------------------|
D|--14-14-14-17-17-17-14-14-14-17-17-17-19-17-14-14-14-14-14141414-141414----|
A|---------------------------------------------------------------------------|
E|---------------------------------------------------------------------------|

e|---------------------------------------------------------------------------|
B|---------------------------------------------------------------------------|
G|---------------------------------------------------------------------------|
D|--12-12-12-14-14-14-12-12-12-14-14-14-12-----------------------------------|
A|-----------------------------------------15-14-----------------------------|
E|---------------------------------------------------------------------------|

e|---------------------------------------------------------------------------|
B|---------------------------------------------------------------------------|
G|---------------------------------------------------------------------------|
D|--12-12-12-14-14-14-12-12-12-14-14-14-12-----------------------------------|
A|-----------------------------------------15-14-12-12-12-12121212-121212----|
E|---------------------------------------------------------------------------|

Play verse chords again as long as necessary then
Bridge:
e|---------------------------------------------------------------------------|
B|---------------------------------------------------------------------------|
G|---------------------------------------------------------------------------|
D|-----15-(x A LONG TIME)-----15----15----15----15----15----15---------------|
A|--17-(THEN)--------------12(x6)14---15---17(x6)---19-17-15-----------------|
E|---------------------------------------------------------------------------|
Repeat until chorus
Play Chorus 
Then End:
e|---------------------------------------------------------------------------|
B|---------------------------------------------------------------------------|
G|---------------------------------------------------------------------------|
D|---------------------------------------------------------------------------|
A|---0--17--19-----0---17-19-15----------------------------------------------|
E|---------------------------------------------------------------------------|

And Super Duper we have a tab!
I had no space to other guitar part but I dont know it as well, 
tell me of errors
big love x
************************************

| s   slide
| h   hammer-on
| p   pull-off
| ~   vibrato
| +   harmonic
| x   Mute note

************************************
            
Submit corrections

comments powered by Disqus
↑ Back to top | Foals Tabs for Red Socks Pugie. Lyrics for acoustic guitar and electric guitar. 1 Tablatures and chords are parodies/interpretations of the original songs. You may use it for private study, scholarship, research or language learning purposes only