>
 >
Inhaler

Inhaler Bass Tabs

Foals - Inhaler chords, tabs, tablatures, lyrics

Guitar lessons | Add/correct | Request | Top 50 tabs Artists:  A B C D E F G H I J K L M N O P Q R S T U V W X Y Z 0-9

Inhaler Bass Tabs – Foals

CD, Sheet music, Poster

Do you like Inhaler? Share with your friends now
Bass TabsBass Tabs v2Tabs
-------------------------------------------------------------------------------
                             INHALER - Foals
-------------------------------------------------------------------------------

Tuning: Drop D

Intro - rest for 4 bars, then after the drums you play:
G|------------|
D|------------|
A|------------|  x3
D|--0--0------|

then the fill:
G|------------|
D|------------|
A|--3--5--5---|
D|------------|
and the real bassline:
G|--------------------|
D|--------------------|
A|--------------------|  x3
D|--0--0--0--/7--3\---|

G|---------------------|
D|---------------------|
A|---------------------|
E|--0--0--0--5-5--3-3--|

Verse:  "Sticks and stones..."
G|------------------------------------------------------------------------------|
D|------------------------------------------------------------------------------|
A|------------------------------------------------------------------------------|
D|--0--0--0--/7--3\----0--0--0--5-5--3-3----8--8--8--8--8\--5--5--5--7--5--3--5-|

Chorus: "So can you not go away..."
G|-------------------------------------------------------------------------|
D|-------------------------------------------------------------------------|
A|-------------------------------------------------------------------------|
D|-5-5-5-5-5-5-5-5-7-7-7-7-7-7-7-7-8-8-8-8-8-8-8-8-10-10-10-10-10-10-10-10-|

G|-------------------------------------------------------------------------|
D|-------------------------------------------------------------------------|
A|--------------------------------------------------------------------12\--|
D|-5-5-5-5-5-5-5-5-7-7-7-7-7-7-7-7-8-8-8-8-8-8-8-8-10-10-10-10-10-10-------|

Heavy Riff Part:
G|---------------------------------------------------------------------------|
D|-------------------3------------------------------------3-----5--5--3-5-3--|
A|-----------3--5-------5--3-----------------------3--5------5---------------|
D|--0--3--5-------------------5--3-5-3\---0--3--5----------------------------|

Outro (right after the last heavy riff part):

G|---------------------------------------|
D|---------------------------------------|
A|-5-5-5-5-5-5-5-5-8-5-5-5-5-5-5-3-5-3---|
D|---------------------------------------|

G|---------------------------------------|
D|---------------------------------------|
A|-5-5-5-5-5-5-5-5-8-5-5-5-5-5-5----3-5--|
D|-------------------------------/5------|

G|---------------------------------------|
D|---------------------------------------|
A|-5-5-5-5-5-5-5-5-8-5-5-5-5-5-5-3-5-3---|
D|---------------------------------------|

G|-------------------------------------------|
D|-------------------------------------------|
A|-5-5-5-5-5-5-5-5-8-5-5-5-5-5-5-/5-3--------|
D|------------------------------------5-3\---|

Bass parts order:

Intro
Verse x4
Chorus x4
Heavy Riff x2
Verse x4
Chorus x4
Heavy Riff x2
Outro (after the outro tab above, play the verse bassline)


| /  slide up
| \  slide down
| h  hammer-on
| p  pull-off
| ~  vibrato
| +  harmonic
| x  Mute note
===============================================================================





Comments


Popular Foals tabs & chords
Hummer Bass Tabs
This Orient Bass Tabs
Cassius Chords
Electric Bloom Chords
2 Trees Tabs
Balloons 1 Tabs
InhalerIntro Tabs
Mathletics Tabs
Red Socks Pugie Tabs
Red Socks Pugie 2 Tabs


Song lyrics



↑ Back to top | Tablatures and chords are parodies/interpretations of the original songs. You may use it for private study, scholarship, research or language learning purposes only
© 2014 AZChords.com Contact us | Privacy policy | DMCA | Add/correct tabs | Request tabs | Top 50 tabs