» » »

Foals, Red Socks Pugie Bass tabs (ver.1)

Artists:  A B C D E F G H I J K L M N O P Q R S T U V W X Y Z # 

Red Socks Pugie Bass tabs (ver.1)

Foals Tabs
Rating:
5/5 (3 votes)
Hard to play? Try these video lessons and learn fast.
                
FOALS



Tuning EADG


01:01 - 01:24

Part 1

|-----------------------------------------------------------------|
|-3~---0---2---3~---0---5---3~---0---2---3~---0---5---7\--3~------|
|-----------------------------------------------------------------|
|-----------------------------------------------------------------|

01:24 - 01:49

Part 2

|-----------------------------------------------------------------
|-3333333333333333000000002222222233333333333333330000000055555555 X 2
|-----------------------------------------------------------------|
|-----------------------------------------------------------------|

01:49 - 02:14

Part 1


02:14 - 02:50

Part 3

|------------------------------------------------------------------|
|-3-3-3-3-3-3-3-3-0-0-0-0-2-2-2-2-3-3-3-3-3-3-3-3-0-0-0-0-5-5-753--|
|------------------------------------------------------------------|
|------------------------------------------------------------------|

|------------------------------------------------|
|-7-7-7-7-7-7-9-10/12-12-12-12-12-12-141210\ X 3-|
|------------------------------------------------|
|------------------------------------------------|

|-----------------------------------------------|
|-7-7-7-7-7-7-9-10/12-12-12-12-1414141414141414-|
|-----------------------------------------------|
|-----------------------------------------------|


02:50 - 03:39

Part 4

|-----------------------------------------------------------------
|-3333333333333333000000002222222233333333333333330000000055557777 X 2
|-----------------------------------------------------------------|
|-----------------------------------------------------------------|

|-----------------------------------------------------------------
|-3333333333333333000000002222222233333333333333330000000055555577
|-----------------------------------------------------------------|
|-----------------------------------------------------------------|

|-----------------------------------------------------------------
|-3333333333333333000000002222222233333333333333330000000055557777
|-----------------------------------------------------------------|
|-----------------------------------------------------------------|


03:53 - 04:28

Part 5

|---------------------------------------------|
|---------------------------------------------|
|-0--0--0--0--0--0--0--0--0--0--0--0--0--0--0-|
|---------------------------------------------|

|-----------------------------------------------------|
|-----------------------------------------------------|
|-8\5--5--5--5-8\3--3--3--3-8\0--0--0--0-8\0--0--0--0-|
|-----------------------------------------------------|


|----------------------------------------------------|
|----------------------------------------------------|
|-8\5--5--5--5-8\3--3--3----8\0--0--0--00-0--0--0----|
|----------------------------------------------------|


It's my first tab and it's sure at 100% ! Enjoy !

PL
            

comments powered by Disqus
↑ Back to top | Foals Bass for Red Socks Pugie. Lyrics for acoustic guitar and electric guitar. Tablatures and chords are parodies/interpretations of the original songs. You may use it for private study, scholarship, research or language learning purposes only