» » »

Flyleaf, Circle Tabs (ver.2)

Artists:  A B C D E F G H I J K L M N O P Q R S T U V W X Y Z # 

Circle Tabs (ver.2)

Flyleaf Tabs
 Rating:
4/5 (4 votes)
Circle lessons Tabs too difficult? Try these video lessons and learn fast
                Rough aroung the edges but gives you the general idea. Doing Bridge now. Corretions are welcome.

Hi, not 100% on the chorus but corrections are welcome.

Intro (acoustic)
|-----------------------------------------------|
|------9----------9----------9------------------|
|----11-11------11-11------11--11-----11-9------|
|--11-----11--11-----11--11------11-11----11-9--|
|-9----------9----------9----------9------------|
|-----------------------------------------------|

|---------------------------------9-------------|
|------------------10----10---------10--10-9-10-|
|----11-----11--------11---9h11—11--------------|
|---9--9---9---9--------------------------------|
|--9----9-9-----9-------------------------------|
|-9------9~----[keep-the-9/B-note-reverb]-------|


Verse (Distorted) Guitar 2 is actually the bass but 
sounds good with rhythm guitar too.
Guitar1                   
|-----7~---------5~-------------------------9------------|
|------7~—[X4]----5~—[X2]—10~---10-----------10----------|
|-------4~---------4~--------{11}-(9)h11--11-----10-9-10-|
|--------------------------------------------------------|
|--------------------------------------------------------|  [reapeat]
|--------------------------------------------------------| 
Guitar2  
|--------------------------------------------------------|
|--------------------------------------------------------|
|--------------------------------------------------------|
|-----000-------000-------000-------000------------------|
|-----000—[X4]--000-[X2]--000-------000------------------|
|-----000-------000-------000-------000------------------| 
      ...       ...       ...       ...

Chorus
Repeat picking sequences over and over til lyrics given

Guitar1 “empty and tiiiied…”
|------------------------9----9s-----11-------------|
|----10----10-------------10---10s-----12-----------|
|------11----11--------11---11---11s-----13---------|
|--11----11----11-9h11------------------------------|
|--[repeat-til]----------[repeat-til]-—[repeat-til]-|
|---------------------------------------------------|

Guitar2
                                      “-stretched until he…”
|-------------------------------------------------------------|
|-------------------------------------------------------------|
|-------------------------------------------------------------|
|--444444---444444777777-4s999999-------9---------------------|
|--444444---444444777777-4s999999-------9----[X12]------------|
|--444444---444444777777-4s999999-------9---------------------|
                           [strum cont.]

2nd Verse
Verse (Distorted) Guitar 2 is actually the bass but 
sounds good with rhythm guitar too.
Guitar1                   
|-----7~---------5~-------------------------9------------|
|------7~—[X4]----5~—[X2]—10~---10-----------10----------|
|-------4~---------4~--------{11}-(9)h11--11-----10-9-10-|
|--------------------------------------------------------|
|--------------------------------------------------------|  [reapeat]
|--------------------------------------------------------| 
Guitar2  
|--------------------------------------------------------|
|--------------------------------------------------------|
|--------------------------------------------------------|
|-----222-------000-------000-------9--------------------|
|-----222—[X4]--000-[X2]--000-------9-[X12]--------------|
|-----222-------000-------000-------9--------------------| 
      ...       ...       ...       
            
Submit corrections

comments powered by Disqus
↑ Back to top | Flyleaf Tabs for Circle. Lyrics for acoustic guitar and electric guitar. Tablatures and chords are parodies/interpretations of the original songs. You may use it for private study, scholarship, research or language learning purposes only