>
 >
Circle

Circle Bass Tabs

Flyleaf - Circle chords, tabs, tablatures, lyrics

Guitar lessons | Add/correct | Request | Top 50 tabs Artists:  A B C D E F G H I J K L M N O P Q R S T U V W X Y Z 0-9

Circle Bass Tabs – Flyleaf

CD, Sheet music, Poster

Do you like Circle? Share with your friends now
Bass TabsChordsTabsTabs v2Ukulele

Tuning: Drop D (low to high) D A D G 

Intro starts off with guitar in the first ten/eleven seconds, then bass comes in right after
 
Verse
G|-----------------------------------------------------------------|
D|-----------------------------------------------------------------|
A|---------------------------------2-2-2---2-2-2---2-2-2---2-2-2---| x2
D|-0-0-0---0-0-0---0-0-0---0-0-0-----------------------------------|
                                   
G|-----------------------------------------------------------------------|
D|-----------------------------------------------------------------------|
A|-5-5-5---5-5-5---5-5-5---5-5-4-3---2-2-2---2-2-2-/14-14-14-14-14-14-14-|
D|-----------------------------------------------------------------------|

Chorus
G|------------------------------|------------------------------------------------|
D|------------------------------|------------------------------------------------| x2
A|------------------------------|------------------------------------------------|
D|-4-4-4-4--x--4-4-4-4--7-7-7-7-|-0-0-0-0-0-0-0-0--2-2-2-2-2-2/14-14-14-14-14-14-|

Verse 2
G|-----------------------------------------------------------------|
D|-----------------------------------------------------------------|
A|---------------------------------2-2-2---2-2-2---2-2-2---2-2-2---| 
D|-0-0-0---0-0-0---0-0-0---0-0-0-----------------------------------|
                                   
G|-----------------------------------------------------------------------|
D|-----------------------------------------------------------------------|
A|-5-5-5---5-5-5---5-5-5---5-5-4-3---2-2-2---2-2-2-/14-14-14-14-14-14-14-|
D|-----------------------------------------------------------------------|

Chorus
G|------------------------------|------------------------------------------------|
D|------------------------------|------------------------------------------------| x2
A|------------------------------|------------------------------------------------|
D|-4-4-4-4--x--4-4-4-4--7-7-7-7-|-0-0-0-0-0-0-0-0--2-2-2-2-2-2/14-14-14-14-14-14-|
                                                        
Bridge/ the bass is in the background, so play quietly 
G|--------------------------------------------------------|
D|-4-4-4-4-4-4-4-4-4-4-4-4-6-6-6--7-7-7-7-7-7-7-7-7-7-7-7-|
A|--------------------------------------------------------|
D|--------------------------------------------------------|

G|---------------------------------------------------------------|
D|-4-4-4-4-4-4-4-4-6-6-6-7-7-7-7-7-7-7-7-9-9-9-9-9-9-9-9-9-9-9-9-|
A|---------------------------------------------------------------|
D|---------------------------------------------------------------|

Ending Chorus/ Outro  
G|---------------------------------------------------------------|
D|---------------------------------------------------------------| x3
A|---------------------------------------------------------------|
D|-7-7-7-7-7-7--9-9-9-9-9-9--12-12-12-12-12-12-12-12-12-12-12-12-|

G|---------------------------------------------------|
D|---------------------------------------------------|
A|---------------------------------------------------|
D|-4-4-4-4-4-4--2-2-2-2-2-2--0-0-0-0-0-0-0-0-0-0-0-0-|

G|---------------------------------------------------------------|
D|---------------------------------------------------------------| x3
A|---------------------------------------------------------------|
D|-7-7-7-7-7-7--9-9-9-9-9-9--12-12-12-12-12-12-12-12-12-12-12-12-|

G|-------------------------------------------------|
D|-------------------------------------------------|
A|-------------------------------------------------|
D|-4-4-4-4-4-4-2-2-2-2-2-2-0-0-0-0-0-0-0-0-0-0-0-0-|

G|--------------------------------|
D|--------------------------------|
A|--------------------------------|
D|-4-4-4-4-4-4--2-2-2-2-2-2--0~~~-|





Comments


Popular Flyleaf tabs & chords
Im So Sick Chords
Im Sorry Chords
Cassie 2 Tabs
In The Dark Tabs
So I Thought Tabs
Swept Away Tabs
Breath Today Ukulele
Breathe Today Ukulele
Justice And Mercy Ukulele
So I Thought Ukulele


Song lyrics



↑ Back to top | Tablatures and chords are parodies/interpretations of the original songs. You may use it for private study, scholarship, research or language learning purposes only
© 2014 AZChords.com Contact us | Privacy policy | DMCA | Add/correct tabs | Request tabs | Top 50 tabs