>
 >
Circle

Circle Guitar Tabs

Flyleaf - Circle chords, tabs, tablatures, lyrics

Guitar lessons | Add/correct | Request | Top 50 tabs Artists:  A B C D E F G H I J K L M N O P Q R S T U V W X Y Z 0-9

Circle Guitar Tabs – Flyleaf

CD, Sheet music, Poster

Do you like Circle? Share with your friends now
Bass TabsChordsTabsTabs v2Ukulele

Tuning: (low to high) D A D G B E



E|------------------------------------------------------------0-------|
B|---------10---------------10---------------10-----------------------|
G|------11----11---------11----11---------11----11---------11---11----|
D|---11----------11---11----------11---11----------11---11---------11-|
A|-9----------------9----------------9----------------9---------------|
D|--------------------------------------------------------------------|

E|-------------------------------------------------9------|
B|---------------------------10------10----10-9h10---9-10-|
G|-------11-----------11----------11----11----------------|
D|-----9----9-------9----9--------------------------------|
A|---9--------9---9--------9------------------------------|
D|-9------------9-----------------------------------------|


Verse
E|-------------------------------------------------------------|
B|-------12-------------12-------------12-------------12-------|
G|----------11-------------11-------------11-------------11----|
D|-------------11-------------11-------------11-------------11-|
A|-------------------------------------------------------------|
D|-0-0-0----------0-0-0----------0-0-0----------0-0-0----------|
PM . . .          . . .          . . .          . . .
                                                                  3x
E|---------------------------------------------------9---------|
B|-------9-------------9-------10------10----10-9h10---10-9h10-|
G|---------11------------11---------11----11-------------------|
D|------------11------------11---------------------------------|
A|-------------------------------------------------------------|
D|-9-9-9---------9-9-9-----------------------------------------|
PM . . .         . . .


Chorus
E|------9-------------9---------------9-------------9---------------|
B|----9------9------9---9----9------9------9------9---9----9--------|
G|-11-----11-----11-------11-----11-----11-----11-------11----------|
D|------------------------------------------------------------------|
A|------------------------------------------------------------------|
D|------------------------------------------------------------------|
 |                                                                  |
E|------------------------------------------------------------------|
B|------------------------------------------------------------------|
G|------------------------------------------------------------------|
D|-4--4--4--4--4--4--4-----------4--4--4--4--4--4--7--7--7--7--7--7-|
A|-4--4--4--4--4--4--4-----------4--4--4--4--4--4--7--7--7--7--7--7-|
D|-4--4--4--4--4--4--4-----------4--4--4--4--4--4--7--7--7--7--7--7-|
                                                                            2x
E|-----------------------------------------17-------17-------17-------17-|
B|-------14---------------14------------15-------15-------15-------15----|
G|-16----------16---16----------16---18-------18-------18-------18-------|
D|----16----16---------16----16------------------------------------------|
A|-----------------------------------------------------------------------|
D|-----------------------------------------------------------------------|
 |                                                                       |
E|-----------------------------------------------------------------------|
B|-----------------------------------------------------------------------|
G|--7--7--7--7--7--7--7--7--7--7--7--------------------------------------|
D|--7--7--7--7--7--7--7--7--7--7--7--2--2--2--2--2--2--2--2--2--2--2--2--|
A|--5--5--5--5--5--5--5--5--5--5--5--2--2--2--2--2--2--2--2--2--2--2--2--|
D|--0--0--0--0--0--0--0--0--0--0--0--2--2--2--2--2--2--2--2--2--2--2--2--|


Verse
Chorus


Bridge
E|-----------------------------------------------------------------------------------------------|
B|-----------------------------------------------------------------------------------------------|
G|-11----------------------------------13----------14--------------------13----------------------|
D|-----------------------------------------------------------------------------------------------|
A|--9----------------------------------11----------12--------------------11----------------------|
D|-----------------------------------------------------------------------------------------------|
 |                                                                                               |
E|-----------------------------------------------------------------------------------------------|
B|-----------------------------------------------------------------------------------------------|
G|-11----------------------------------13----------14--------------------13----------------------|
D|-----------------------------------------------------------------------------------------------|
A|--9----------------------------------11----------12--------------------11----------------------|
D|-----------------------------------------------------------------------------------------------|

E|-----------------------------------------------------------------------------------------------|
B|-----------------------------------------------------------------------------------------------|
G|-11----------------------------------13----------14--------------------16----------------------|
D|-----------------------------------------------------------------------------------------------|
A|--9----------------------------------11----------12--------------------14----------------------|
D|-----------------------------------------------------------------------------------------------|
 |                                                                                               |
E|-----------------------------------------------------------------------------------------------|
B|-----------------------------------------------------------------------------------------------|
G|-----------------------------------------------------------------------------------------------|
D|-4-4-4-4-4-4-4-4-4-4-4-4-4-4-4-4-4-4-6-6-6-6-6-6-7-7-7-7-7-7-7-7-7-7-7-9-9-9-9-9-9-9-9-9-9-9-9-|
A|-----------------------------------------------------------------------------------------------|
D|-----------------------------------------------------------------------------------------------|

E|--0--0--0--0--0--0-------------------------------------------------------|
B|-------------------------------------------------------------------------|
G|-14-14-14-14-14-14-13-13-13-13-13-13-------------------14/16\14----13/14-|
D|-------------------------------------12-12-12-12-12-12-------------------|
A|-12-12-12-12-12-12-11-11-11-11-11-11-------------------12/14\12----11/12-|
D|-------------------------------------12-12-12-12-12-12-------------------|
 |                                                                         |  3x  
E|-------------------------------------------------------------------------|
B|-------------------------------------------------------------------------|
G|-------------------------------------------------------------------------|
D|-7--7--7--7--7--7--9--9--9--9--9--9--12-12-12-12-12-12-12-12-12-12-12-12-|
A|-7--7--7--7--7--7--9--9--9--9--9--9--12-12-12-12-12-12-12-12-12-12-12-12-|
D|-7--7--7--7--7--7--9--9--9--9--9--9--12-12-12-12-12-12-12-12-12-12-12-12-|

E|--0--0--0--0--0--0--0--0--0--0--0--0--0--0--0--0--0--0--0--0--0--0--0--0-|
B|-------------------------------------------------------------------------|
G|-14-14-14-14-14-14-14-14-14-14-14-14-14-14-14-14-14-14-14-14-14-14-14-14-|
D|-------------------------------------------------------------------------|
A|-12-12-12-12-12-12-12-12-12-12-12-12-12-12-12-12-12-12-12-12-12-12-12-12-|
D|-------------------------------------------------------------------------|
 |                                                                         |
E|-------------------------------------------------------------------------|
B|-------------------------------------------------------------------------|
G|-------------------------------------------------------------------------|
D|-4--4--4--4--4--4--2--2--2--2--2--2--0--0--0--0--0--0--0--0--0--0--0--0--|
A|-4--4--4--4--4--4--2--2--2--2--2--2--0--0--0--0--0--0--0--0--0--0--0--0--|
D|-4--4--4--4--4--4--2--2--2--2--2--2--0--0--0--0--0--0--0--0--0--0--0--0--|

E|--0--0--0--0--0--0-------------------------------------------------------|
B|-------------------------------------------------------------------------|
G|-14-14-14-14-14-14-13-13-13-13-13-13-------------------14/16\14----13/14-|
D|-------------------------------------12-12-12-12-12-12-------------------|
A|-12-12-12-12-12-12-11-11-11-11-11-11-------------------12/14\12----11/12-|
D|-------------------------------------12-12-12-12-12-12-------------------|
 |                                                                         |  3x  
E|-------------------------------------------------------------------------|
B|-------------------------------------------------------------------------|
G|-------------------------------------------------------------------------|
D|-7--7--7--7--7--7--9--9--9--9--9--9--12-12-12-12-12-12-12-12-12-12-12-12-|
A|-7--7--7--7--7--7--9--9--9--9--9--9--12-12-12-12-12-12-12-12-12-12-12-12-|
D|-7--7--7--7--7--7--9--9--9--9--9--9--12-12-12-12-12-12-12-12-12-12-12-12-|

E|--0--0--0--0--0--0--0--0--0--0--0--0--0--0--0--0--0--0--0--0--0--0--0--0-|
B|-------------------------------------------------------------------------|
G|-14-14-14-14-14-14-14-14-14-14-14-14-14-14-14-14-14-14-14-14-14-14-14-14-|
D|-------------------------------------------------------------------------|
A|-12-12-12-12-12-12-12-12-12-12-12-12-12-12-12-12-12-12-12-12-12-12-12-12-|
D|-------------------------------------------------------------------------|
 |                                                                         |
E|-------------------------------------------------------------------------|
B|-------------------------------------------------------------------------|
G|-------------------------------------------------------------------------|
D|-4--4--4--4--4--4--2--2--2--2--2--2--0--0--0--0--0--0--0--0--0--0--0--0--|
A|-4--4--4--4--4--4--2--2--2--2--2--2--0--0--0--0--0--0--0--0--0--0--0--0--|
D|-4--4--4--4--4--4--2--2--2--2--2--2--0--0--0--0--0--0--0--0--0--0--0--0--|

E|--0--0--0--0--0--0--0--0--0--0--0--0--0--0--0--0--0--0--0--0--0--0--0--0-|
B|-------------------------------------------------------------------------|
G|-14-14-14-14-14-14-14-14-14-14-14-14-14-14-14-14-14-14-14-14-14-14-14-14-|
D|-------------------------------------------------------------------------|
A|-12-12-12-12-12-12-12-12-12-12-12-12-12-12-12-12-12-12-12-12-12-12-12-12-|
D|-------------------------------------------------------------------------|
 |                                                                         |
E|-------------------------------------------------------------------------|
B|-------------------------------------------------------------------------|
G|-------------------------------------------------------------------------|
D|-4--4--4--4--4--4--2--2--2--2--2--2--0--0--0--0--0--0--0--0--0--0--0--0--|
A|-4--4--4--4--4--4--2--2--2--2--2--2--0--0--0--0--0--0--0--0--0--0--0--0--|
D|-4--4--4--4--4--4--2--2--2--2--2--2--0--0--0--0--0--0--0--0--0--0--0--0--|


Outro
E|-------0---0-------0---0-0-----0---0-0-----0---0-------0---0-------0---0-0---------------------|
B|-------0---0-------0---0-0-----0---0-0-----0---0-------0---0-------0---0-3---------------------|
G|-------2---2-------2---2-2-----2---2-2-----2---2-------2---2-------2---2-2---------------------|
D|-------2---2-------------0-----0-----0-----0---0-------------------------0---------------------|
A|-0-----------2-----------------------------------------------------------0---------------------|
D|-------------------------------------------------4-----------2-----------0---------------------|


Note: For each connected staff, both guitar parts are meant to be played simultaneously.
The upper staff is lead guitar (Sameer) and the lower staff is rhythm guitar (Jared). 
The spacing I used to indicate timing is not always consistent between the two guitars.


| /  slide up
| \  slide down
| b  bend
| h  hammer-on
| p  pull-off
| PM palm mute
===============================================================================





Comments


Popular Flyleaf tabs & chords
So I Thought 2 Bass Tabs
The Kind Bass Tabs
Cassie 1 Chords
Saving Grace Chords
This Close 3 Chords
Chasm Tabs
Fully Alive Tabs
Stay Faraway So Close Tabs
Supernatural 3 Tabs
Tiny Heart Ukulele


Song lyrics



↑ Back to top | Tablatures and chords are parodies/interpretations of the original songs. You may use it for private study, scholarship, research or language learning purposes only
© 2014 AZChords.com Contact us | Privacy policy | DMCA | Add/correct tabs | Request tabs | Top 50 tabs