>
 >
Broken Wings 2

Broken Wings 2 Guitar Tabs

Flyleaf - Broken Wings 2 chords, tabs, tablatures, lyrics

Guitar lessons | Add/correct | Request | Top 50 tabs Artists:  A B C D E F G H I J K L M N O P Q R S T U V W X Y Z 0-9

Broken Wings 2 Guitar Tabs – Flyleaf

CD, Sheet music, Poster

Do you like Broken Wings 2? Share with your friends now
Bass TabsBass Tabs v2ChordsTabsTabs v2Ukulele
This is my first tab so i hope it's right. This is the chorus part. The verse and 

Tuning:DADGBE


E----------------------------------------------------------------------------|
B----------3\2----3\2----3\2----10\9-----------------------------------------|
G------2-2----2-2----2\1----2\1------222-222-222-222-------------------------|
D------4-4----4-4----2-2----2-2------000-000-000-000-------------------------|
A------4-4----4-4----2-2----2-2------000-000-000-000-------------------------|
D------4-4----4-4----2-2----2-2------000-000-000-000-------------------------|
 and i...........am sooo...lost with words........


E----------------------------------------------------------------------------|
B----------3\2----3\2----3\2----10\9-----------------------------------------|
G------2-2----2-2----2\1----2\1------222-222-222-222-------------------------|
D------4-4----4-4----2-2----2-2------000-000-000-000-------------------------|
A------4-4----4-4----2-2----2-2------000-000-000-000-------------------------|
D------4-4----4-4----2-2----2-2------000-000-000-000-------------------------|
 and i...........am sooo...overwhelmed


and that's it. on the g string, you don't have to put ur finger on the second fret or 
first, that's the way i do. You can just use the DAD strings,but if you listen closly you 
hear the 2 and 1 fret being played in the chorus. Hope you like it.





Comments


Popular Flyleaf tabs & chords
Beautiful Bride 1 Bass Tabs
Fully Alive 6 Chords
Heavy Prey Chords
Saving Grace 1 Chords
Amy Says Tabs
Arise Tabs
Im So Sick 2 Tabs
Much Like Falling Intro Tabs
Sleepwalker Tabs
Set Apart This Dream Ukulele


Song lyrics



↑ Back to top | Tablatures and chords are parodies/interpretations of the original songs. You may use it for private study, scholarship, research or language learning purposes only
© 2014 AZChords.com Contact us | Privacy policy | DMCA | Add/correct tabs | Request tabs | Top 50 tabs