>
 >
Broken Wings

Broken Wings Bass Tabs

Flyleaf - Broken Wings chords, tabs, tablatures, lyrics

Guitar lessons | Add/correct | Request | Top 50 tabs Artists:  A B C D E F G H I J K L M N O P Q R S T U V W X Y Z 0-9

Broken Wings Bass Tabs – Flyleaf

CD, Sheet music, Poster

Do you like Broken Wings? Share with your friends now
Bass TabsBass Tabs v2ChordsTabsTabs v2Ukulele
Intro

G|---------------------------------------------------------------------------|
D|---------------------------------------------------------------------------|
A|---------------------------------------------------------------------------|  
D|2---4---0-------4---2---0-------4---7---0-------4---2---0------------------|

Verse 1
(00:26)

G|---------------------------------------------------------------------------|
D|---------------------------------------------------------------------------|
A|---------------------------------------------------------------------------|  
D|2---4---0-------4---2---0-------4---7---0-------4---2---0------------------|

Repeat

Chorus
(1:15)

G|---------------------------------------------------------------------------|
D|---------------------------------------------------------------------------|
A|---------------------------------------------------------------------------|
D|44--44--22--22-000000000000----44--44--22--22--000000000000---------------|

Verse 2
(1:37)

G|---------------------------------------------------------------------------|
D|---------------------------------------------------------------------------|
A|-----------------------------------------4h5-9-7---------------------------|
D|2---4---0-------4---2---0-------4---7---0---0----4---2---/12---------------|

Chorus
(2:01)

Interlude
(2:22)

G|---------------------------------------------------------------------------|
D|---------------------------------------------------------------------------|
A|--------------------------------------------------22-00--------------------|
D|44444444-22222222-0000000000000000-4444-66-77-2222-----0000000000000000----|

Bridge
(2:44)

G|---------------------------------------------------------------------------|
D|---------------------------------------------------------------------------|
A|---------------------------------------------------------------------------|
D|44--44--22--22-000000000000----44--44--22--22--000000000000---------------|


Chorus [variation]
(3:05)

G|---------------------------------------------------------------------------|
D|---------------------------------------------------------------------------|
A|--------------------------------------------------22-00--------------------|
D|44444444-22222222-0000000000000000-4444-66-77-2222-----0000000000000000----|

Outro
(3:26)

G|---------------------------------------------------------------------------|
D|---------------------------------------------------------------------------|
A|---------------2200----------------------------------2200------4h5-9-7-----|
D|4444-6677-2222-----0000000000000000----4444-6677-2222----0--------0--------|





Comments


Popular Flyleaf tabs & chords
Cassie 7 Bass Tabs
Much Like Falling Bass Tabs
Perfect Bass Tabs
There For You Chords
This Close 3 Chords
Dear My Closest Friend Tabs
Perfect 1 Tabs
So I Though Tabs
Tiny Heart Intro Tabs
Arise Ukulele


Song lyrics



↑ Back to top | Tablatures and chords are parodies/interpretations of the original songs. You may use it for private study, scholarship, research or language learning purposes only
© 2014 AZChords.com Contact us | Privacy policy | DMCA | Add/correct tabs | Request tabs | Top 50 tabs