>
 >
Broken Wings

Broken Wings Guitar Tabs

Flyleaf - Broken Wings chords, tabs, tablatures, lyrics

Guitar lessons | Add/correct | Request | Top 50 tabs Artists:  A B C D E F G H I J K L M N O P Q R S T U V W X Y Z 0-9

Broken Wings Guitar Tabs – Flyleaf

CD, Sheet music, Poster

Do you like Broken Wings? Share with your friends now
Bass TabsBass Tabs v2ChordsTabsTabs v2Ukulele
Flyleaf

Tuning: Drop D both guitars

b - bend
h - hammer
p - pull off
* - harmonics
/ - slide up
\ - slide down
~ - let ring

Intro/Verses:

Guitar 1:
e|-----------------------------2~-----------|
B|-----------------------------3~-----------|
G|-------------------------1~--2~-----------|
D|-2~--4~--0~----------7~--2~--0~--------0*-|
A|-2~--4~--0~----------4~--2~--0~-----0*----|
D|-2~--4~--0~--7*--5*--4~--2~--0~--0*-------|
then
e|------------------------2~-|
B|----10~--3~-------------3~-|
G|-6~--9~--2~---------1~--2~-|
D|-7~--7~--0~-----7~--2~--0~-|
A|-4~--7~--0~-----4~--2~--0~-|
D|-4~--7~--0~-----4~--2~--0~-|

Guitar 2:
e|-------------------------12*--12*--------12---------------------12*-----------------|
B|---------9--9h10p9------------------9h10------10---9h10-10--10----------------------|
G|-6b----9--------------------------------------------------------------7b--6b--6h7p6-|
D|-------------------7-7*-------------------------------------------------------------|
A|------------------------------------------------------------------------------------|
D|------------------------------------------------------------------------------------|
then
e|-------------------7/9---12*--12*--------12-------------7/9---12*---------------------|
B|---------9--9h10p9------------------9h10------10---9h10-------------------------------|
G|-6b----9--------------------------------------------------------------7b--6b--6h7p6---|
D|------------------------------------------------------------------7*------------------|
A|------------------------------------------------------------------7*------------------|
D|------------------------------------------------------------------7*------------------|


Choruses:

Guitar 1:
e|---------------------------------------------------------|
B|-6-6---6-6-----------------------------------------------|
G|-7-7---7-7---1-1---1-1-----------------------------------|
D|-4-4---4-4---2-2---2-2---0-0-0-0-0-0-0-0-0-0-0-0-0-0-0-0-| (x2)
A|-4-4---4-4---2-2---2-2---0-0-0-0-0-0-0-0-0-0-0-0-0-0-0-0-|
D|-4-4---4-4---2-2---2-2---0-0-0-0-0-0-0-0-0-0-0-0-0-0-0-0-|

Guitar 2:
e|------------------------------------5-5-5-5-5-5-5-5-5-5-5-5-5-5-5-5-|
B|-----------------------------10b\9b-3-3-3-3-3-3-3-3-3-3-3-3-3-3-3-3-|
G|-----7b\6b---7b\6b---7b\6b----------2-2-2-2-2-2-2-2-2-2-2-2-2-2-2-2-|
D|------------------------------------0-0-0-0-0-0-0-0-0-0-0-0-0-0-0-0-|
A|--------------------------------------------------------------------|
D|--------------------------------------------------------------------|


Outro: 3:04

Guitar 1:
e|-----------------------------------------------------------------|
B|-7-7-7-7-7-7-7-7-5-5-5-5-5-5-5-5-3-3-3-3-3-3-3-3-3-3-3-3-3-3-3-3-|
G|-6-6-6-6-6-6-6-6-4-4-4-4-4-4-4-4-2-2-2-2-2-2-2-2-2-2-2-2-2-2-2-2-|
D|-4-4-4-4-4-4-4-4-2-2-2-2-2-2-2-2-0-0-0-0-0-0-0-0-0-0-0-0-0-0-0-0-| (x2)
A|-4-4-4-4-4-4-4-4-2-2-2-2-2-2-2-2-0-0-0-0-0-0-0-0-0-0-0-0-0-0-0-0-|
D|-4-4-4-4-4-4-4-4-2-2-2-2-2-2-2-2-0-0-0-0-0-0-0-0-0-0-0-0-0-0-0-0-|

Guitar 2:
e|----------------------------------------------------------------------------|
B|-------------------5/9-9-9-9-10-10-10-10------------------------------------|
G|-7/9-9-9-9-9-9-9-9-----------------------6/7-7-7-7-7-7-7-7-6/7\6/-9-9-9-9-9-|
D|----------------------------------------------------------------------------| (x2)
A|----------------------------------------------------------------------------|
D|----------------------------------------------------------------------------|

3:25
e|-----------------------------------------------------------------|
B|-7-7-7-7-7-7-7-7-5-5-5-5-5-5-5-5-3-3-3-3-3-3-3-3-3-3-3-3-3-3-3-3-|
G|-6-6-6-6-6-6-6-6-4-4-4-4-4-4-4-4-2-2-2-2-2-2-2-2-2-2-2-2-2-2-2-2-|
D|-4-4-4-4-4-4-4-4-2-2-2-2-2-2-2-2-0-0-0-0-0-0-0-0-0-0-0-0-0-0-0-0-|
A|-4-4-4-4-4-4-4-4-2-2-2-2-2-2-2-2-0-0-0-0-0-0-0-0-0-0-0-0-0-0-0-0-|
D|-4-4-4-4-4-4-4-4-2-2-2-2-2-2-2-2-0-0-0-0-0-0-0-0-0-0-0-0-0-0-0-0-|
then
e|------------------------------------|
B|------------------------------------|
G|-6-6-6-6-6-6-6-6-4-4-4-4-4-4-4-4-2~-|
D|-4-4-4-4-4-4-4-4-2-2-2-2-2-2-2-2-0~-|
A|-4-4-4-4-4-4-4-4-2-2-2-2-2-2-2-2-0~-|
D|-4-4-4-4-4-4-4-4-2-2-2-2-2-2-2-2-0~-|

Guitar 2:
e|------12------12--------------9*-------5*--------------------------------12*-|
B|-9h10----9h10----10p9-9h10-10-----------------------------------7-9h10p9-----|
G|---------------------------------9\7\6----7-7-7-7-7-7-7-7-9-9-9--------------|
D|-----------------------------------------------------------------------------|
A|-----------------------------------------------------------------------------|
D|-----------------------------------------------------------------------------|
then
e|------12------12--------------9*-------5*----|
B|-9h10----9h10----10p9-9h10-10----------------|
G|---------------------------------9\7\6----7~-|
D|---------------------------------------------|
A|---------------------------------------------|
D|---------------------------------------------|


______________________________________________________________________________________________

Lyrics

Chords used: Drop D only
E5  - 222xxx
F#5 - 444xxx
D   - 000xxx
A   - 777xxx


Intro: E5-F#5-D5--F#5-E5--|D5
       F#5-A5-D5--F#5-E5--|D5


Verse 1:
E5 F#5           D5
   Thank you for being such a friend to me
F#5     E5                D5
   Oh I pray a friend for life
F#5    A5            D5
   And suddenly ever told you how much you mean to me
F#5          E5             D5
   Oh you're mean to master me
E5     F#5              D5
   I'm Thinking all the time how to tell you what I feel
F#5    E5            D5
   I'm Contemplating phrases
F#5    A5         D5
   I'm gazing at eternity
F#5     E5            D5
   I am floating in serenity


Chorus 1:
    F#5  E5          D5
And I am so lost for words
    F#5  E5     D5
And I am so overwhelmed


Verse 2:
E5  F#5             D5
    Please don't go just yet
F#5          E5           D5
    Can you stay a moment please
F#5 A5             D5
    We can dance together
F#5 E5              D5
    We can dance forever


Chorus 2:
   F#5      E5     D5
Under your stars tonight
    F#5   E5          D5
And oh envied deep collide


Interlude: F#5-E5-D5 (x2)


Outro:
F#5
    I think you
                    E5
But don't dream too deep
                        D5
And please pass me some memories
F#5                             E5
    And when I fall you're underneath
                  D5
A thousand broken hearts
                             F#5-E5-D5
Carried by a thousand broken wings
                  F#5-E5-D5
A thousand broken wings

F#5-E5-D5----F#5-E5-D5(hold)





Comments


Popular Flyleaf tabs & chords
In The Dark Bass Tabs
Much Like Falling Bass Tabs
Cassie 4 Chords
Christmas Song Chords
Cassie 5 Tabs
I'm So Sick Tabs
Ocean Waves 1 Tabs
Perfect Intro 1 Tabs
There For You Tabs
Im So Sick Ukulele


Song lyrics



↑ Back to top | Tablatures and chords are parodies/interpretations of the original songs. You may use it for private study, scholarship, research or language learning purposes only
© 2014 AZChords.com Contact us | Privacy policy | DMCA | Add/correct tabs | Request tabs | Top 50 tabs