» » »

Rise Tabs (ver.3)

Artists:  A B C D E F G H I J K L M N O P Q R S T U V W X Y Z # 

Rise Tabs (ver.3)

Flobots
Rating:
4/5 (1 vote)

Hard to play? Try these video lessons and learn fast.
                 Its my first tab, and probably isn't very good. Awesome song though!!

/  Slide Up
x  Mute
~  Vibrato

Intro after bass
E |----------------------------------|
B |----------------------------------|
G |-9-9-9-9/11-8---------------------|       2x
D |-x-x-x-x/x--x--9-9~---------------|
A |-7-7-7-7/9--6---------------------|
E |----------------------------------|

Verse
E |---------------------------|
B |---------------------------|
G |--9-9-9-9------------------|
D |--9-9-9-9---6-6-6-6--------|    2x
A |--7-7-7-7---6-6-6-6--------|
E |------------4-4-4-4--------|

Verse
E |----------------------------|
B |----------------------------|
G |-------------9/8-8-8-8------|   2x
D |-8/9-9-9-9---9/x-x-x-x------|
A |-x/x-x-x-x---7/6-6-6-6------|
E |-6/7-7-7-7------------------|

Verse
E |----------------------------------|
B |----------------------------------|
G |-9-9-9-9/11-8---------------------|       2x
D |-x-x-x-x/x--x--9-9~---------------|
A |-7-7-7-7/9--6---------------------|
E |----------------------------------|

Verse
E |---------------------------|
B |---------------------------|
G |--9-9-9-9------------------|
D |--9-9-9-9---6-6-6-6--------|    2x
A |--7-7-7-7---6-6-6-6--------|
E |------------4-4-4-4--------|


Verse
E |----------------------------|
B |----------------------------|
G |-------------9/8-8-8-8------|   1x
D |-8/9-9-9-9---9/x-x-x-x------|
A |-x/x-x-x-x---7/6-6-6-6------|
E |-6/7-7-7-7------------------|


Verse
E |---------------------------|
B |---------------------------|
G |--9-9-9-9------------------|
D |--9-9-9-9---6-6-6-6--------|    2x
A |--7-7-7-7---6-6-6-6--------|
E |------------4-4-4-4--------|

Chorus
E |-------------------------------------------|
B |-------------------------------------------|
G |--9-9-9-9-9-9-9-9--------------------------|
D |--9-9-9-9-9-9-9-9---6-6-6-6-6-6-6-6--------|     2x
A |--7-7-7-7-7-7-7-7---6-6-6-6-6-6-6-6--------|
E |--------------------4-4-4-4-4-4-4-4--------|

Verse
E |---------------------------|
B |---------------------------|
G |--9-9-9-9------------------|
D |--9-9-9-9---6-6-6-6--------|    2x
A |--7-7-7-7---6-6-6-6--------|
E |------------4-4-4-4--------|

Verse
E |----------------------------|
B |----------------------------|
G |-------------9/8-8-8-8------|   2x
D |-8/9-9-9-9---9/x-x-x-x------|
A |-x/x-x-x-x---7/6-6-6-6------|
E |-6/7-7-7-7------------------|

Verse
E |----------------------------------|
B |----------------------------------|
G |-9-9-9-9/11-8---------------------|       2x
D |-x-x-x-x/x--x--9-9~---------------|
A |-7-7-7-7/9--6---------------------|
E |----------------------------------|

Chorus
E |-------------------------------------------|
B |-------------------------------------------|
G |--9-9-9-9-9-9-9-9--------------------------|
D |--9-9-9-9-9-9-9-9---6-6-6-6-6-6-6-6--------|     2x
A |--7-7-7-7-7-7-7-7---6-6-6-6-6-6-6-6--------|
E |--------------------4-4-4-4-4-4-4-4--------|

Solo
E |------------------------------------|
B |----------------------------4-7-4---|
G |------------------------------------|      2x
D |--4/6-6-6h7--4/6-6-6h7--4/6---------|
A |------------------------------------|
E |------------------------------------|


E |----------------------------------|
B |-5-5-5-5-5-5-5-5-7-7-7-7-7-7-7-7--|
G |----------------------------------|
D |----------------------------------|
A |----------------------------------|
E |----------------------------------|


E |-------------------------------------------------------------------|
B |-9--9--9--9--9--9--9--9----12--12--12--12--12--12--12--12----------|
G |--11-11-11-11-11-11-11-11----11--11--11--11--11--11--11--11--------|
D |-------------------------------------------------------------------|
A |-------------------------------------------------------------------|
E |-------------------------------------------------------------------|


E |---------------------------|
B |-9--9--9--9--9--9--9--9----|
G |--11-11-11-11-11-11-11-11--|
D |---------------------------|
A |---------------------------|
E |---------------------------|


E |------------------------------------|
B |------------------------------------|
G |--11--9-9-9-9-99--8-----------------|
D |--11--9-9-9-9-99--8-----------------|
A |---9--7-7-7-7-77--6-----------------|
E |------------------------------------|


E |----------------------------------|
B |----------------------------------|
G |-9-9-9-9/11-8---------------------|       2x
D |-x-x-x-x/x--x--9-9~---------------|
A |-7-7-7-7/9--6---------------------|
E |----------------------------------|


Chorus
E |-------------------------------------------|
B |-------------------------------------------|
G |--9-9-9-9-9-9-9-9--------------------------|
D |--9-9-9-9-9-9-9-9---6-6-6-6-6-6-6-6--------|     5x
A |--7-7-7-7-7-7-7-7---6-6-6-6-6-6-6-6--------|
E |--------------------4-4-4-4-4-4-4-4--------|


E |------------------------------------|
B |----------------------------4-7-4---|
G |------------------------------------|      3x
D |--4/6-6-6h7--4/6-6-6h7--4/6---------|
A |------------------------------------|
E |------------------------------------|


E |-----------------------------|
B |-----------------------------|
G |-----------------------------|
D |--4/6-6-6h7--4/6-6-6h7--4/6~-|
A |-----------------------------|
E |-----------------------------|
            
Hard to play? Try these video lessons and learn fast. | Correct




comments powered by Disqus
↑ Back to top | Tablatures and chords are parodies/interpretations of the original songs. You may use it for private study, scholarship, research or language learning purposes only