» » »

Flobots, Rise Tabs (ver.1)

Artists:  A B C D E F G H I J K L M N O P Q R S T U V W X Y Z # 

Rise Tabs (ver.1)

Flobots Tabs
 Rating:
4/5 (11 votes)
Rise lessons Tabs too difficult? Try these video lessons and learn fast
                intro
e------------------------------------|
b------------------------------------|
g-9-x-x-9-x-x-9-x-x-9/11-x-x---------|
d-x-x-x-x-x-x-x-x-x-x/-x-x-x-6--9-9~-|
a-7-x-x-7-x-x-7-x-x-7/-9-x-x-6-------|
e----------------------------4-------|

Viola 
Intro
e-----------------------------|
b-----------------------------|
g-------6-------6-------6-----|
d-6~--9---6~--9---6~--9---6~--|
a-----------------------------|
e-----------------------------|

verse (composed of several riffs)
riff1  (play this riff softer than the rest)
e-------------------------|
b-------------------------|
g-9-9-9-9-x-x-------------|
d-x-x-x-x-x-x-6-6-6-6-x-x-|
a-7-7-7-7-x-x-x-x-x-x-x-x-|
e-------------4-4-4-4-x-x-|

riff2(you can play them 2 ways. they both sound the same to me so it shouldn't make a difference)

e----------------------|
b----------------------|
g------------9-8-8-8-8-|
d-8-9-9-9-9--x-x-x-x-x-|
a-x-x-x-x-x--7-6-6-6-6-|
e-6-7-7-7-7------------|

or

e----------------------|
b----------------------|
g-3-4-4-4-4--9-8-8-8-8-|
d-x-x-x-x-x--x-x-x-x-x-|
a-1-2-2-2-2--7-6-6-6-6-|
e----------------------|


riff3 (intro)

VIola Verse 
Riff 1
e---------------------------|
b-----------------------9~--|
g--/9~--8-----------9~------|
d---------11p9--------------|
a--------------11~----------|
e---------------------------|


Riff 2
e-------------|
b-------------|
g-------------|
d-9~--7~--6~--|
a-------------|
e-------------|

Chorus
Guitar
e---------------------------------|
b---------------------------------|
g-9-9-9-9-9-9-9-9-----------------|
d-9-9-9-9-9-9-9-9-6-6-6-6-6-6-6-6-|
a-7-7-7-7-7-7-7-7-6-6-6-6-6-6-6-6-|
e-----------------4-4-4-4-4-4-4-4-|

Viola
e-------------|
b-------------|
g-------------|
d-9~--7~--6~--|
a-------------|
e-------------|

Solo (might be bad since i'm tabbing from an acoustic and there's some distortion in there)
Guitar
e-------------------------------------|
b----------------------------4-7-4~---|
g-------------------------------------|
d--6-6-6h7p6-4/6-6-6h7p6-4/6----------| 2x
a-------------------------------------|
e-------------------------------------|


e-----------------------------------------------------------------------------|
b-5-5-5-5-5-5-5-5-7-7-7-7-7-7-7-7-9---9----9----9----9----9----9----9----9----|
g----------------------------------11---11---11---11---11---11---11---11---11-|
d-----------------------------------------------------------------------------|
a-----------------------------------------------------------------------------|
e-----------------------------------------------------------------------------|

e----------------------------------------------------------|
b-12----12----12----12----12----12--9--9-----9----9----9---|
g----11----11----11----11----11------11---11---11----11-11-|
d----------------------------------------------------------|
a----------------------------------------------------------|
e----------------------------------------------------------|

e---------------------------------------------------------------------------|
b-(scratch or palm mute some of the chords in the rhythm it's in)-----------|
g-11-11-11/9-9-9-9-9-9-8~--9/11-11-11/9-9-9-9-9-9/8~--8-8-8-----------------|
d--x--x--x/x-x-x-x-x-x-x~--x/-x--x--x/x-x-x-x-x-x/x~--x-x-x-----------------|
a--9--9--9/7-7-7-7-7-7-6~--7/-9--9--9/7-7-7-7-7-7/6~--6-6-6-----------------|
e---------------------------------------------------------------------------|

e------------------------------|
b------------------------------|
g-9-x-x-9-x-x-9-x-x-9/11/9-----|
d-x-x-x-x-x-x-x-x-x-x/-x/x--6~-| 2x
a-7-x-x-7-x-x-7-x-x-7/-9/7--6~-|
e---------------------------4~-|

Viola
Part 1
e-----------------|
b-----7-9-----7-9-|
g-9~------8~------|
d-----------------| 2x
a-----------------|
e-----------------|

Part 2
e-----------------|
b-------------7-9-|
g-----------------| several 
d-9~--7~--6~------|  times
a-----------------|
e-----------------|

Finish with part 1 for solo

Chorus

Outro
e------------------------------------|
b---------------------------4-7-4~---|
g------------------------------------|
d-6-6-6h7p6-4/6-6-6h7p6-4/6----------| 3x
a------------------------------------|
e------------------------------------|

e------------------------------|
b------------------------------|
g------------------------------|
d-6-6-6h7p6-4/6-6-6h7p6-4/6~---|
a------------------------------|
e------------------------------|


Viola
e-------------|
b-------------|
g-------------|
d-9~--7~--6~--|
a-------------|
e-------------|
            
Submit corrections

comments powered by Disqus
↑ Back to top | Flobots Tabs for Rise. Lyrics for acoustic guitar and electric guitar. Tablatures and chords are parodies/interpretations of the original songs. You may use it for private study, scholarship, research or language learning purposes only