» » »

Flobots, Rise Tabs (ver.2)

Artists:  A B C D E F G H I J K L M N O P Q R S T U V W X Y Z # 

Rise Tabs (ver.2)

Flobots Tabs
 Rating:
4/5 (4 votes)
Rise lessons Tabs too difficult? Try these video lessons and learn fast
                ive been looking for ages for a right tab for this song
ive seen many,but all seem to be missing parts
so i decided to Put them all together
but ive also figured out some parts out on my own :)
sooo thank you to everyone who previously sumited a tab 4 this song
ive put your knowledge to good use :)
i hope is useful!
i tried really hard to make it organiced; its my first tab 
comments r welcome;and corrections :D




-Intro   2x  Just Bass             
G|----------------|            
D|2-2-2-2---------|            
A|----------------|            
E|--------4-4-4-4-|           
                             
                              
-Rhythm Guitar 2x
e------------------------------------|
b------------------------------------|
g-9-x-x-9-x-x-9-x-x-9/11-x-x---------|
d-x-x-x-x-x-x-x-x-x-x/-x-x-x---9--9-~|
a-7-x-x-7-x-x-7-x-x-7/-9-x-x---------|
e----------------------------4--4----|


-Intro   2x  Bass
G|----------------|          
D|2-2-2-2---------|
A|----------------|
E|--------4-4-4-4-|
 
 So much pain we
 Dont know how to be but angry
 Feel infected like weve got gangrene
 Please dont let anybody try to change me 

G|----------------|   
E|4-6-777-7-------|<------------------------------|                 
D|----------------|                               |
A|----------7-666-|                               |
                                                  |
-Rhythm picks up rigth after the first beat above-| 
b----------------------|                          
g------------9-8-8-8---|
d-8-9-9-9-9--x-x-x-x---|
a-x-x-x-x-x--7-6-6-6---|
e-6-7-7-7-7------------|


Me
Just me
In the middle of a sea full of faces
Full of faces
Some laugh some salivate
Whats in your alleyway
Recycling bins or bullet cases 

-Rhythm Guitar 2x
e------------------------------------|
b------------------------------------|
g-9-x-x-9-x-x-9-x-x-9/11-x-x---------|
d-x-x-x-x-x-x-x-x-x-x/-x-x-x---9--9-~|
a-7-x-x-7-x-x-7-x-x-7/-9-x-x---------|
e----------------------------4--4----|

Its not equal
Its not fair 
Were different people
But were not scared
We aint never scared
To pave a new path
Make a new street
Build a new bridge 

-Intro   2x  Bass
 G|----------------|
 D|2-2-2-2---------|
 A|----------------|
 E|--------4-4-4-4-|

Say can you see by the dawns early light
Free slaves running
Songs words werent right
Now a new days coming
The few stay stunning while the many are handsome
Your soul is alive but they want it for ransom 

G|----------------|
D|----------------| 
A|----------7-666-|
E|4-6-777-7-------|

The base drumming is the anthem
We step to the heartbeats of our granddaughters and grandsons
And

Rise together;we rise together  ?x 


-Chorus
WE RISE TOGETHER!!!!
e---------------------------------|
b---------------------------------|
g-9-9-9-9-9-9-9-9-----------------|
d-9-9-9-9-9-9-9-9-6-6-6-6-6-6-6-6-|
a-7-7-7-7-7-7-7-7-6-6-6-6-6-6-6-6-|
e-----------------4-4-4-4-4-4-4-4-|

-Intro   2x  Bass
 G|----------------|
 D|2-2-2-2---------|
 A|----------------|
 E|--------4-4-4-4-|

Lost hope and found need
Grounded by our surroundings
Did the walls scream universities
Or you and i verse the tees 

G|----------------|   
E|4-6-777-7-------|<------------------------------|                 
D|----------------|                               |
A|----------7-666-|                               |
                                                  |
-Rhythm picks up rigth after the first beat above-| 
b----------------------|                          
g------------9-8-8-8---|
d-8-9-9-9-9--x-x-x-x---|
a-x-x-x-x-x--7-6-6-6---|
e-6-7-7-7-7------------| 

React automatic and we burst when squeezed
And make 9-11 each emergency
Urgency amber to red like the turning leaves
Oh please let the hurting cease 

-Rhythm Guitar 2x
e------------------------------------|
b------------------------------------|
g-9-x-x-9-x-x-9-x-x-9/11-x-x---------|
d-x-x-x-x-x-x-x-x-x-x/-x-x-x---9--9-~|
a-7-x-x-7-x-x-7-x-x-7/-9-x-x---------|
e----------------------------4--4----|

Don't let apathy police the populace
We will march across
Those stereotypes that were marked for us
The answers obvious
We switch the consonants
Change the sword to words and lift continents 

-Chorus
WE RISE TOGETHER!!!!
e---------------------------------|
b---------------------------------|
g-9-9-9-9-9-9-9-9-----------------|
d-9-9-9-9-9-9-9-9-6-6-6-6-6-6-6-6-|
a-7-7-7-7-7-7-7-7-6-6-6-6-6-6-6-6-|
e-----------------4-4-4-4-4-4-4-4-|

-Solo    Heavy Distortion
e-------------------------------------|
b----------------------------4-7-4~---|
g-------------------------------------|
d-6-6-6h7p6-4/6-6-6h7p6-4/6-----------| 2x
a-------------------------------------|
e-------------------------------------|

e------------------------------------------------------------------|
b-5-5-5-5-5-5-5-5-7-7-7-7-7-7-7-7-98-9-8-9-8-9-8-9-8-9-8-9-8-9-8-9-|
g------------------------------------------------------------------|
d------------------------------------------------------------------|
a------------------------------------------------------------------|
e------------------------------------------------------------------|

e---------------------------------------------------------------|
b-1211-12-11-12-11-12-11-12-11-12-989-8-9-8-9-8-9-8-9-8-9-8-9-7-|
g---------------------------------------------------------------|
d---------------------------------------------------------------|
a---------------------------------------------------------------|
e---------------------------------------------------------------|

(scratch or palm mute some of the chords in the rhythm it's in)
e-----------------------------------------------------------|
b-----------------------------------------------------------|
g-11-11-11/9-9-9-9-9-9-8~--9/11-11-11/9-9-9-9-9-9/8~--8-8-8-|
d--x--x--x/x-x-x-x-x-x-x~--x/-x--x--x/x-x-x-x-x-x/x~--x-x-x-| 
a--9--9--9/7-7-7-7-7-7-6~--7/-9--9--9/7-7-7-7-7-7/6~--6-6-6-|
e-----------------------------------------------------------|

e------------------------------------|
b------------------------------------|
g-9-x-x-9-x-x-9-x-x-9/11-x-x---------|
d-x-x-x-x-x-x-x-x-x-x/-x-x-x---9--9-~|
a-7-x-x-7-x-x-7-x-x-7/-9-x-x---------|
e----------------------------4--4----|


-Intro   2x  Just Bass             
G|----------------|            
D|2-2-2-2---------|            
A|----------------|            
E|--------4-4-4-4-|      


-Chorus
WE RISE TOGETHER!!!!
e---------------------------------|
b---------------------------------|
g-9-9-9-9-9-9-9-9-----------------|
d-9-9-9-9-9-9-9-9-6-6-6-6-6-6-6-6-|
a-7-7-7-7-7-7-7-7-6-6-6-6-6-6-6-6-|
e-----------------4-4-4-4-4-4-4-4-|

If you believe in redemption
I'm calling to you from another dimension



-Outro
e-------------------------------------|
b----------------------------4-7-4~---|
g-------------------------------------|
d-6-6-6h7p6-4/6-6-6h7p6-4/6-----------| 3x
a-------------------------------------|
e-------------------------------------|

e----------------------------|
b----------------------------|
g----------------------------|
d-6-6-6h7p6-4/6-6-6h7p6-4/6~-|
a----------------------------|
e----------------------------|
            
Submit corrections

comments powered by Disqus
↑ Back to top | Flobots Tabs for Rise. Lyrics for acoustic guitar and electric guitar. Tablatures and chords are parodies/interpretations of the original songs. You may use it for private study, scholarship, research or language learning purposes only